  0
SECTION
  2
HEADER
  9
$ACADVER
  1
AC1015
  9
$ACADMAINTVER
 70
     6
  9
$DWGCODEPAGE
  3
ANSI_1252
  9
$INSBASE
 10
0.0
 20
0.0
 30
0.0
  9
$EXTMIN
 10
0.0
 20
0.0
 30
0.0
  9
$EXTMAX
 10
1600.0
 20
900.0
 30
0.0
  9
$LIMMIN
 10
0.0
 20
0.0
  9
$LIMMAX
 10
1600.0
 20
900.0
  9
$ORTHOMODE
 70
     0
  9
$REGENMODE
 70
     1
  9
$FILLMODE
 70
     1
  9
$QTEXTMODE
 70
     0
  9
$MIRRTEXT
 70
     1
  9
$LTSCALE
 40
1.0
  9
$ATTMODE
 70
     1
  9
$TEXTSIZE
 40
5.0
  9
$TRACEWID
 40
1.0
  9
$TEXTSTYLE
  7
Standard
  9
$CLAYER
  8
0
  9
$CELTYPE
  6
ByLayer
  9
$CECOLOR
 62
   256
  9
$CELTSCALE
 40
1.0
  9
$DISPSILH
 70
     0
  9
$DIMSCALE
 40
1.0
  9
$DIMASZ
 40
6.0
  9
$DIMEXO
 40
1.0
  9
$DIMDLI
 40
3.75
  9
$DIMRND
 40
0.0
  9
$DIMDLE
 40
0.0
  9
$DIMEXE
 40
1.0
  9
$DIMTP
 40
0.0
  9
$DIMTM
 40
0.0
  9
$DIMTXT
 40
5.0
  9
$DIMCEN
 40
2.5
  9
$DIMTSZ
 40
0.0
  9
$DIMTOL
 70
     0
  9
$DIMLIM
 70
     0
  9
$DIMTIH
 70
     1
  9
$DIMTOH
 70
     1
  9
$DIMSE1
 70
     0
  9
$DIMSE2
 70
     0
  9
$DIMTAD
 70
     1
  9
$DIMZIN
 70
     0
  9
$DIMBLK
  1

  9
$DIMASO
 70
     1
  9
$DIMSHO
 70
     1
  9
$DIMPOST
  1

  9
$DIMAPOST
  1

  9
$DIMALT
 70
     0
  9
$DIMALTD
 70
     3
  9
$DIMALTF
 40
0.0393700787
  9
$DIMLFAC
 40
1.0
  9
$DIMTOFL
 70
     1
  9
$DIMTVP
 40
0.0
  9
$DIMTIX
 70
     0
  9
$DIMSOXD
 70
     0
  9
$DIMSAH
 70
     0
  9
$DIMBLK1
  1

  9
$DIMBLK2
  1

  9
$DIMSTYLE
  2
ISO-25
  9
$DIMCLRD
 70
     0
  9
$DIMCLRE
 70
     0
  9
$DIMCLRT
 70
     0
  9
$DIMTFAC
 40
1.0
  9
$DIMGAP
 40
1.524
  9
$DIMJUST
 70
     0
  9
$DIMSD1
 70
     0
  9
$DIMSD2
 70
     0
  9
$DIMTOLJ
 70
     0
  9
$DIMTZIN
 70
     0
  9
$DIMALTZ
 70
     0
  9
$DIMALTTZ
 70
     0
  9
$DIMUPT
 70
     0
  9
$DIMDEC
 70
     2
  9
$DIMTDEC
 70
     2
  9
$DIMALTU
 70
     2
  9
$DIMALTTD
 70
     3
  9
$DIMTXSTY
  7
Standard
  9
$DIMAUNIT
 70
     0
  9
$DIMADEC
 70
     2
  9
$DIMALTRND
 40
0.0
  9
$DIMAZIN
 70
     0
  9
$DIMDSEP
 70
    44
  9
$DIMATFIT
 70
     3
  9
$DIMFRAC
 70
     0
  9
$DIMLDRBLK
  1

  9
$DIMLUNIT
 70
     2
  9
$DIMLWD
 70
    -2
  9
$DIMLWE
 70
    -2
  9
$DIMTMOVE
 70
     0
  9
$LUNITS
 70
     2
  9
$LUPREC
 70
     2
  9
$SKETCHINC
 40
1.0
  9
$FILLETRAD
 40
10.0
  9
$AUNITS
 70
     0
  9
$AUPREC
 70
     2
  9
$MENU
  1
.
  9
$ELEVATION
 40
0.0
  9
$PELEVATION
 40
0.0
  9
$THICKNESS
 40
0.0
  9
$LIMCHECK
 70
     0
  9
$CHAMFERA
 40
0.0
  9
$CHAMFERB
 40
0.0
  9
$CHAMFERC
 40
0.0
  9
$CHAMFERD
 40
0.0
  9
$SKPOLY
 70
     0
  9
$TDCREATE
 40
2458505.549124352
  9
$TDUCREATE
 40
2458505.465791019
  9
$TDUPDATE
 40
2458505.54912544
  9
$TDUUPDATE
 40
2458505.465792106
  9
$TDINDWG
 40
0.0000000116
  9
$TDUSRTIMER
 40
0.0000000116
  9
$USRTIMER
 70
     1
  9
$ANGBASE
 50
0.0
  9
$ANGDIR
 70
     0
  9
$PDMODE
 70
     0
  9
$PDSIZE
 40
-1.0
  9
$PLINEWID
 40
0.0
  9
$SPLFRAME
 70
     0
  9
$SPLINETYPE
 70
     6
  9
$SPLINESEGS
 70
     8
  9
$HANDSEED
  5
416
  9
$SURFTAB1
 70
     6
  9
$SURFTAB2
 70
     6
  9
$SURFTYPE
 70
     6
  9
$SURFU
 70
     6
  9
$SURFV
 70
     6
  9
$UCSBASE
  2

  9
$UCSNAME
  2

  9
$UCSORG
 10
0.0
 20
0.0
 30
0.0
  9
$UCSXDIR
 10
1.0
 20
0.0
 30
0.0
  9
$UCSYDIR
 10
0.0
 20
1.0
 30
0.0
  9
$UCSORTHOREF
  2

  9
$UCSORTHOVIEW
 70
     0
  9
$UCSORGTOP
 10
0.0
 20
0.0
 30
0.0
  9
$UCSORGBOTTOM
 10
0.0
 20
0.0
 30
0.0
  9
$UCSORGLEFT
 10
0.0
 20
0.0
 30
0.0
  9
$UCSORGRIGHT
 10
0.0
 20
0.0
 30
0.0
  9
$UCSORGFRONT
 10
0.0
 20
0.0
 30
0.0
  9
$UCSORGBACK
 10
0.0
 20
0.0
 30
0.0
  9
$PUCSBASE
  2

  9
$PUCSNAME
  2

  9
$PUCSORG
 10
0.0
 20
0.0
 30
0.0
  9
$PUCSXDIR
 10
1.0
 20
0.0
 30
0.0
  9
$PUCSYDIR
 10
0.0
 20
1.0
 30
0.0
  9
$PUCSORTHOREF
  2

  9
$PUCSORTHOVIEW
 70
     0
  9
$PUCSORGTOP
 10
0.0
 20
0.0
 30
0.0
  9
$PUCSORGBOTTOM
 10
0.0
 20
0.0
 30
0.0
  9
$PUCSORGLEFT
 10
0.0
 20
0.0
 30
0.0
  9
$PUCSORGRIGHT
 10
0.0
 20
0.0
 30
0.0
  9
$PUCSORGFRONT
 10
0.0
 20
0.0
 30
0.0
  9
$PUCSORGBACK
 10
0.0
 20
0.0
 30
0.0
  9
$USERI1
 70
     0
  9
$USERI2
 70
     0
  9
$USERI3
 70
     0
  9
$USERI4
 70
     0
  9
$USERI5
 70
     0
  9
$USERR1
 40
0.0
  9
$USERR2
 40
0.0
  9
$USERR3
 40
0.0
  9
$USERR4
 40
0.0
  9
$USERR5
 40
0.0
  9
$WORLDVIEW
 70
     1
  9
$SHADEDGE
 70
     3
  9
$SHADEDIF
 70
    70
  9
$TILEMODE
 70
     1
  9
$MAXACTVP
 70
    64
  9
$PINSBASE
 10
0.0
 20
0.0
 30
0.0
  9
$PLIMCHECK
 70
     0
  9
$PEXTMIN
 10
1.0000000000E+20
 20
1.0000000000E+20
 30
1.0000000000E+20
  9
$PEXTMAX
 10
-1.0000000000E+20
 20
-1.0000000000E+20
 30
-1.0000000000E+20
  9
$PLIMMIN
 10
0.0
 20
0.0
  9
$PLIMMAX
 10
420.0
 20
297.0
  9
$UNITMODE
 70
     0
  9
$VISRETAIN
 70
     1
  9
$PLINEGEN
 70
     0
  9
$PSLTSCALE
 70
     1
  9
$TREEDEPTH
 70
  3020
  9
$CMLSTYLE
  2
Standard
  9
$CMLJUST
 70
     0
  9
$CMLSCALE
 40
20.0
  9
$PROXYGRAPHICS
 70
     1
  9
$MEASUREMENT
 70
     1
  9
$CELWEIGHT
370
    -1
  9
$ENDCAPS
280
     0
  9
$JOINSTYLE
280
     0
  9
$LWDISPLAY
290
     1
  9
$INSUNITS
 70
     4
  9
$HYPERLINKBASE
  1

  9
$STYLESHEET
  1

  9
$XEDIT
290
     1
  9
$CEPSNTYPE
380
     0
  9
$PSTYLEMODE
290
     1
  9
$FINGERPRINTGUID
  2
{E36DFA6C-C3CF-446B-B373-B18313EC8FB9}
  9
$VERSIONGUID
  2
{FAEB1C32-E019-11D5-929B-00C0DF256EC4}
  9
$EXTNAMES
290
     1
  9
$PSVPSCALE
 40
0.0
  9
$OLESTARTUP
290
     0
  0
ENDSEC
  0
SECTION
  2
CLASSES
  0
CLASS
  1
ACDBDICTIONARYWDFLT
  2
AcDbDictionaryWithDefault
  3
ObjectDBX Classes
 90
        0
280
     0
281
     0
  0
CLASS
  1
VISUALSTYLE
  2
AcDbVisualStyle
  3
ObjectDBX Classes
 90
     4095
280
     0
281
     0
  0
CLASS
  1
MATERIAL
  2
AcDbMaterial
  3
ObjectDBX Classes
 90
     1153
280
     0
281
     0
  0
CLASS
  1
SCALE
  2
AcDbScale
  3
ObjectDBX Classes
 90
     1153
280
     0
281
     0
  0
CLASS
  1
TABLESTYLE
  2
AcDbTableStyle
  3
ObjectDBX Classes
 90
     4095
280
     0
281
     0
  0
CLASS
  1
MLEADERSTYLE
  2
AcDbMLeaderStyle
  3
ACDB_MLEADERSTYLE_CLASS
 90
     4095
280
     0
281
     0
  0
CLASS
  1
SUN
  2
AcDbSun
  3
SCENEOE
 90
     1153
280
     0
281
     0
  0
CLASS
  1
ACDBPLACEHOLDER
  2
AcDbPlaceHolder
  3
ObjectDBX Classes
 90
        0
280
     0
281
     0
  0
CLASS
  1
LAYOUT
  2
AcDbLayout
  3
ObjectDBX Classes
 90
        0
280
     0
281
     0
  0
ENDSEC
  0
SECTION
  2
TABLES
  0
TABLE
  2
VPORT
  5
8
330
0
100
AcDbSymbolTable
 70
     1
  0
VPORT
  5
29
330
8
100
AcDbSymbolTableRecord
100
AcDbViewportTableRecord
  2
*Active
 70
     0
 10
0.0
 20
0.0
 11
1.0
 21
1.0
 12
800.0
 22
450.0
 13
0.0
 23
0.0
 14
10.0
 24
10.0
 15
10.0
 25
10.0
 16
0.0
 26
0.0
 36
1.0
 17
0.0
 27
0.0
 37
0.0
 40
900.0
 41
1.7777777778
 42
50.0
 43
0.0
 44
0.0
 50
0.0
 51
0.0
 71
     0
 72
  2000
 73
     1
 74
     3
 75
     0
 76
     0
 77
     0
 78
     0
281
     0
 65
     1
110
0.0
120
0.0
130
0.0
111
1.0
121
0.0
131
0.0
112
0.0
122
1.0
132
0.0
 79
     0
146
0.0
  0
ENDTAB
  0
TABLE
  2
LTYPE
  5
5
330
0
100
AcDbSymbolTable
 70
     6
  0
LTYPE
  5
14
330
5
100
AcDbSymbolTableRecord
100
AcDbLinetypeTableRecord
  2
ByBlock
 70
     0
  3

 72
    65
 73
     0
 40
0.0
  0
LTYPE
  5
15
330
5
100
AcDbSymbolTableRecord
100
AcDbLinetypeTableRecord
  2
ByLayer
 70
     0
  3

 72
    65
 73
     0
 40
0.0
  0
LTYPE
  5
16
330
5
100
AcDbSymbolTableRecord
100
AcDbLinetypeTableRecord
  2
Continuous
 70
     0
  3
Solid line
 72
    65
 73
     0
 40
0.0
  0
LTYPE
  5
6E
330
5
100
AcDbSymbolTableRecord
100
AcDbLinetypeTableRecord
  2
HIDDEN
 70
     0
  3
Hidden __ __ __ __ __ __ __ __ __ __ __ __ __ __
 72
    65
 73
     2
 40
1.905
 49
1.27
 74
     0
 49
-0.635
 74
     0
  0
LTYPE
  5
6F
330
5
100
AcDbSymbolTableRecord
100
AcDbLinetypeTableRecord
  2
PHANTOM
 70
     0
  3
Phantom ______  __  __  ______  __  __  ______
 72
    65
 73
     6
 40
12.7
 49
6.35
 74
     0
 49
-1.27
 74
     0
 49
1.27
 74
     0
 49
-1.27
 74
     0
 49
1.27
 74
     0
 49
-1.27
 74
     0
  0
LTYPE
  5
70
330
5
100
AcDbSymbolTableRecord
100
AcDbLinetypeTableRecord
  2
CENTER
 70
     0
  3
Center ____ _ ____ _ ____ _ ____ _ ____ _ ____
 72
    65
 73
     4
 40
10.16
 49
6.35
 74
     0
 49
-1.27
 74
     0
 49
1.27
 74
     0
 49
-1.27
 74
     0
  0
LTYPE
  5
71
330
5
100
AcDbSymbolTableRecord
100
AcDbLinetypeTableRecord
  2
CENTERX2
 70
     0
  3
Center (2x) ________  __  ________  __  _____
 72
    65
 73
     4
 40
20.32
 49
12.7
 74
     0
 49
-2.54
 74
     0
 49
2.54
 74
     0
 49
-2.54
 74
     0
  0
LTYPE
  5
72
330
5
100
AcDbSymbolTableRecord
100
AcDbLinetypeTableRecord
  2
DOT2
 70
     0
  3
Dot (.5x) ........................................
 72
    65
 73
     2
 40
0.635
 49
0.0
 74
     0
 49
-0.635
 74
     0
  0
ENDTAB
  0
TABLE
  2
LAYER
  5
2
330
0
100
AcDbSymbolTable
 70
     2
  0
LAYER
  5
10
330
2
100
AcDbSymbolTableRecord
100
AcDbLayerTableRecord
  2
0
 70
     0
 62
     7
  6
Continuous
370
    -3
390
F
  0
LAYER
  5
73
330
2
100
AcDbSymbolTableRecord
100
AcDbLayerTableRecord
  2
TABLE_BL1
 70
     0
 62
   179
  6
Continuous
370
    -3
390
F
  0
ENDTAB
  0
TABLE
  2
STYLE
  5
3
330
0
100
AcDbSymbolTable
 70
     1
  0
STYLE
  5
11
330
3
100
AcDbSymbolTableRecord
100
AcDbTextStyleTableRecord
  2
Standard
 70
     0
 40
0.0
 41
1.0
 50
0.0
 71
     0
 42
5.0
  3
txt
  4

  0
ENDTAB
  0
TABLE
  2
VIEW
  5
6
330
0
100
AcDbSymbolTable
 70
     0
  0
ENDTAB
  0
TABLE
  2
UCS
  5
7
330
0
100
AcDbSymbolTable
 70
     0
  0
ENDTAB
  0
TABLE
  2
APPID
  5
9
330
0
100
AcDbSymbolTable
 70
     1
  0
APPID
  5
12
330
9
100
AcDbSymbolTableRecord
100
AcDbRegAppTableRecord
  2
ACAD
 70
     0
  0
ENDTAB
  0
TABLE
  2
DIMSTYLE
  5
A
330
0
100
AcDbSymbolTable
 70
     1
100
AcDbDimStyleTable
  0
DIMSTYLE
105
27
330
A
100
AcDbSymbolTableRecord
100
AcDbDimStyleTableRecord
  2
ISO-25
 70
     0
 41
2.5
 42
0.625
 43
3.75
 44
1.25
 73
     0
 74
     0
 77
     1
 78
     8
140
2.5
141
2.5
143
0.0393700787
147
0.625
171
     3
172
     1
178
     0
271
     2
272
     2
274
     3
278
    44
283
     0
284
     8
340
11
  0
ENDTAB
  0
TABLE
  2
BLOCK_RECORD
  5
1
330
0
100
AcDbSymbolTable
 70
     1
  0
BLOCK_RECORD
  5
1F
330
1
100
AcDbSymbolTableRecord
100
AcDbBlockTableRecord
  2
*Model_Space
340
22
  0
BLOCK_RECORD
  5
1B
330
1
100
AcDbSymbolTableRecord
100
AcDbBlockTableRecord
  2
*Paper_Space
340
1E
  0
BLOCK_RECORD
  5
23
330
1
100
AcDbSymbolTableRecord
100
AcDbBlockTableRecord
  2
*Paper_Space0
340
26
  0
ENDTAB
  0
ENDSEC
  0
SECTION
  2
BLOCKS
  0
BLOCK
  5
20
330
1F
100
AcDbEntity
  8
0
100
AcDbBlockBegin
  2
*Model_Space
 70
     0
 10
0.0
 20
0.0
 30
0.0
  3
*Model_Space
  1

  0
ENDBLK
  5
21
330
1F
100
AcDbEntity
  8
0
100
AcDbBlockEnd
  0
BLOCK
  5
1C
330
1B
100
AcDbEntity
 67
     1
  8
0
100
AcDbBlockBegin
  2
*Paper_Space
 70
     0
 10
0.0
 20
0.0
 30
0.0
  3
*Paper_Space
  1

  0
ENDBLK
  5
1D
330
1B
100
AcDbEntity
 67
     1
  8
0
100
AcDbBlockEnd
  0
BLOCK
  5
24
330
23
100
AcDbEntity
  8
0
100
AcDbBlockBegin
  2
*Paper_Space0
 70
     0
 10
0.0
 20
0.0
 30
0.0
  3
*Paper_Space0
  1

  0
ENDBLK
  5
25
330
23
100
AcDbEntity
  8
0
100
AcDbBlockEnd
  0
ENDSEC
  0
SECTION
  2
ENTITIES
  0
SPLINE
  5
74
330
1F
100
AcDbEntity
  8
0
  6
Continuous
 62
     7
370
    25
100
AcDbSpline
210
0.0
220
0.0
230
1.0
 70
     8
 71
     3
 72
    18
 73
    14
 74
     0
 42
0.000000001
 43
0.00000001
 40
0.0
 40
0.0
 40
0.0
 40
0.0
 40
0.1181635431298399
 40
0.2417303279702889
 40
0.3519955371403711
 40
0.4393435067182493
 40
0.5540331906502011
 40
0.6249960715635478
 40
0.7018578430574826
 40
0.7811807462674253
 40
0.8592624563415898
 40
0.9329152553567248
 40
1.0
 40
1.0
 40
1.0
 40
1.0
 10
731.1642108626922
 20
503.2431172706472
 30
0.0
 10
730.8129872645
 20
502.1799565008229
 30
0.0
 10
730.0944797338935
 20
500.0050200122278
 30
0.0
 10
730.6301270512429
 20
496.623854820494
 30
0.0
 10
732.1083598164603
 20
493.9475798459183
 30
0.0
 10
734.2690770468279
 20
491.9213697186135
 30
0.0
 10
736.6433638248545
 20
490.8161490506665
 30
0.0
 10
739.0951377517626
 20
490.461918191413
 30
0.0
 10
741.2357520336892
 20
490.6498375720847
 30
0.0
 10
743.3333807647215
 20
491.3734177436635
 30
0.0
 10
745.1558554826842
 20
492.5741119224325
 30
0.0
 10
746.593659676541
 20
494.0725491640047
 30
0.0
 10
747.2148137002637
 20
495.2409662041715
 30
0.0
 10
747.5108964510521
 20
495.7979104049789
 30
0.0
  0
SPLINE
  5
75
330
1F
100
AcDbEntity
  8
0
  6
Continuous
 62
     7
370
    25
100
AcDbSpline
210
0.0
220
0.0
230
1.0
 70
     8
 71
     3
 72
    18
 73
    14
 74
     0
 42
0.000000001
 43
0.00000001
 40
0.0
 40
0.0
 40
0.0
 40
0.0
 40
0.1181635245537783
 40
0.2417303231125548
 40
0.3519954511917784
 40
0.4393436238450702
 40
0.5540330976658122
 40
0.6249959876467835
 40
0.7018580368365082
 40
0.7811806955865311
 40
0.8592623961789748
 40
0.9329153967761802
 40
1.0
 40
1.0
 40
1.0
 40
1.0
 10
747.5108964510521
 20
495.7979104049789
 30
0.0
 10
747.8621185841654
 20
496.8610713485365
 30
0.0
 10
748.5806232161352
 20
499.0360084907496
 30
0.0
 10
748.044975446818
 20
502.4171707591347
 30
0.0
 10
746.5667482113435
 20
505.0934513789407
 30
0.0
 10
744.4060235723039
 20
507.1196517622378
 30
0.0
 10
742.0317421678125
 20
508.2248804061842
 30
0.0
 10
739.5799669063252
 20
508.5791100239152
 30
0.0
 10
737.4393525441825
 20
508.3911903334872
 30
0.0
 10
735.341724454329
 20
507.6676075433029
 30
0.0
 10
733.5192520328901
 20
506.4669132165781
 30
0.0
 10
732.081439362568
 20
504.968482569929
 30
0.0
 10
731.4602904340466
 20
503.8000618251505
 30
0.0
 10
731.1642108626922
 20
503.2431172706472
 30
0.0
  0
LWPOLYLINE
  5
76
330
1F
100
AcDbEntity
  8
0
  6
Continuous
 62
     7
370
    25
100
AcDbPolyline
 90
        3
 70
   128
 43
0.0
 10
748.7908689447
 20
516.4041525252
 10
747.7099983163
 20
516.9654159375
 10
747.4874643751
 20
517.0704821624
  0
LWPOLYLINE
  5
77
330
1F
100
AcDbEntity
  8
0
  6
Continuous
 62
     7
370
    25
100
AcDbPolyline
 90
        3
 70
   128
 43
0.0
 10
740.6228346892
 20
518.8277816899
 10
740.0667904087
 20
518.8567681738
 10
739.0095306702
 20
518.8677317031
  0
LINE
  5
78
330
1F
100
AcDbEntity
  8
0
  6
Continuous
 62
     7
370
    25
100
AcDbLine
 10
732.02402649
 20
517.4351675935
 30
0.0
 11
730.5976463624
 21
516.7842494823
 31
0.0
  0
LINE
  5
79
330
1F
100
AcDbEntity
  8
0
  6
Continuous
 62
     7
370
    25
100
AcDbLine
 10
724.9804971881
 20
512.4934657045
 30
0.0
 11
724.0410311289
 21
511.3712089636
 31
0.0
  0
LWPOLYLINE
  5
7A
330
1F
100
AcDbEntity
  8
0
  6
Continuous
 62
     7
370
    25
100
AcDbPolyline
 90
        3
 70
   128
 43
0.0
 10
720.7920713492
 20
505.0420767196
 10
720.5540998049
 20
504.1685743757
 10
720.4025549956
 20
503.5065381356
  0
LWPOLYLINE
  5
7B
330
1F
100
AcDbEntity
  8
0
  6
Continuous
 62
     7
370
    25
100
AcDbPolyline
 90
        3
 70
   128
 43
0.0
 10
720.2453440197
 20
496.3724824168
 10
720.2573655315
 20
496.30041947
 10
720.5620123215
 20
494.8405955486
  0
LINE
  5
7C
330
1F
100
AcDbEntity
  8
0
  6
Continuous
 62
     7
370
    25
100
AcDbLine
 10
723.4953543313
 20
488.4098304004
 30
0.0
 11
724.3802821405
 21
487.2444150363
 31
0.0
  0
LWPOLYLINE
  5
7D
330
1F
100
AcDbEntity
  8
0
  6
Continuous
 62
     7
370
    25
100
AcDbPolyline
 90
        3
 70
   128
 43
0.0
 10
729.8011494942
 20
482.6836643309
 10
730.9651052721
 20
482.0756112725
 10
731.2374239929
 20
481.947511112
  0
LWPOLYLINE
  5
7E
330
1F
100
AcDbEntity
  8
0
  6
Continuous
 62
     7
370
    25
100
AcDbPolyline
 90
        3
 70
   128
 43
0.0
 10
738.1533472009
 20
480.206784004
 10
738.6083169051
 20
480.1842599675
 10
739.7285340496
 20
480.1744643167
  0
LINE
  5
7F
330
1F
100
AcDbEntity
  8
0
  6
Continuous
 62
     7
370
    25
100
AcDbLine
 10
746.6448335119
 20
481.6033105865
 30
0.0
 11
747.9873610802
 21
482.2114609681
 31
0.0
  0
LINE
  5
80
330
1F
100
AcDbEntity
  8
0
  6
Continuous
 62
     7
370
    25
100
AcDbLine
 10
753.6297155686
 20
486.4761049078
 30
0.0
 11
754.6671046086
 21
487.712582891
 31
0.0
  0
LWPOLYLINE
  5
81
330
1F
100
AcDbEntity
  8
0
  6
Continuous
 62
     7
370
    25
100
AcDbPolyline
 90
        3
 70
   128
 43
0.0
 10
757.883028514
 20
493.998950956
 10
758.1210000582
 20
494.8724532999
 10
758.2845552035
 20
495.5919623874
  0
LWPOLYLINE
  5
82
330
1F
100
AcDbEntity
  8
0
  6
Continuous
 62
     7
370
    25
100
AcDbPolyline
 90
        3
 70
   128
 43
0.0
 10
758.4314881034
 20
502.6580362149
 10
758.4177343317
 20
502.7406072744
 10
758.1399096318
 20
504.0915037073
  0
LINE
  5
83
330
1F
100
AcDbEntity
  8
0
  6
Continuous
 62
     7
370
    25
100
AcDbLine
 10
755.2356435128
 20
510.5510732658
 30
0.0
 11
754.20899821
 21
511.9004423298
 31
0.0
  0
SPLINE
  5
84
330
1F
100
AcDbEntity
  8
0
  6
Continuous
 62
     7
370
    25
100
AcDbSpline
210
0.0
220
0.0
230
1.0
 70
     8
 71
     3
 72
     9
 73
     5
 74
     0
 42
0.000000001
 43
0.00000001
 40
0.0
 40
0.0
 40
0.0
 40
0.0
 40
0.5599961867886655
 40
1.0
 40
1.0
 40
1.0
 40
1.0
 10
755.8509422607979
 20
511.9315298773633
 30
0.0
 10
755.7795798903857
 20
511.8778938068564
 30
0.0
 10
755.6521462183433
 20
511.7821144573319
 30
0.0
 10
755.4522795066925
 20
511.6319038973566
 30
0.0
 10
755.3643373914322
 20
511.5658106781827
 30
0.0
  0
SPLINE
  5
85
330
1F
100
AcDbEntity
  8
0
  6
Continuous
 62
     7
370
    25
100
AcDbSpline
210
0.0
220
0.0
230
1.0
 70
     8
 71
     3
 72
     9
 73
     5
 74
     0
 42
0.000000001
 43
0.00000001
 40
0.0
 40
0.0
 40
0.0
 40
0.0
 40
0.5600016697372306
 40
1.0
 40
1.0
 40
1.0
 40
1.0
 10
723.3107661970218
 20
487.4752175213123
 30
0.0
 10
723.1992124019555
 20
487.3913772324254
 30
0.0
 10
723.000009790437
 20
487.241662877241
 30
0.0
 10
722.8778900737849
 20
487.1498813345992
 30
0.0
 10
722.8241576023659
 20
487.1094976090878
 30
0.0
  0
SPLINE
  5
86
330
1F
100
AcDbEntity
  8
0
  6
Continuous
 62
     7
370
    25
100
AcDbSpline
210
0.0
220
0.0
230
1.0
 70
     8
 71
     3
 72
     9
 73
     5
 74
     0
 42
0.000000001
 43
0.00000001
 40
0.0
 40
0.0
 40
0.0
 40
0.0
 40
0.5600008277266312
 40
0.9999999999999999
 40
0.9999999999999999
 40
0.9999999999999999
 40
0.9999999999999999
 10
755.8509422607979
 20
511.9315298773633
 30
0.0
 10
756.0132242142788
 20
512.0534965176884
 30
0.0
 10
756.3030129885916
 20
512.271293767775
 30
0.0
 10
756.7594808013265
 20
512.6143617050254
 30
0.0
 10
756.9603262610992
 20
512.765311313449
 30
0.0
  0
SPLINE
  5
87
330
1F
100
AcDbEntity
  8
0
  6
Continuous
 62
     7
370
    25
100
AcDbSpline
210
0.0
220
0.0
230
1.0
 70
     8
 71
     3
 72
     9
 73
     5
 74
     0
 42
0.000000001
 43
0.00000001
 40
0.0
 40
0.0
 40
0.0
 40
0.0
 40
0.5600002821116911
 40
1.0
 40
1.0
 40
1.0
 40
1.0
 10
721.7147773273548
 20
486.2757157218928
 30
0.0
 10
721.9702057357792
 20
486.4676885492065
 30
0.0
 10
722.4263276638989
 20
486.8104969967125
 30
0.0
 10
722.7025985086254
 20
487.0181363515409
 30
0.0
 10
722.8241576023659
 20
487.1094976090878
 30
0.0
  0
SPLINE
  5
88
330
1F
100
AcDbEntity
  8
0
  6
Continuous
 62
     7
370
    25
100
AcDbSpline
210
0.0
220
0.0
230
1.0
 70
     8
 71
     3
 72
    11
 73
     7
 74
     0
 42
0.000000001
 43
0.00000001
 40
0.0
 40
0.0
 40
0.0
 40
0.0
 40
0.2723401918050736
 40
0.5618934242625492
 40
0.7876559682811415
 40
1.0
 40
1.0
 40
1.0
 40
1.0
 10
760.9212486215195
 20
515.7422299064981
 30
0.0
 10
760.9167458595207
 20
515.7388461633395
 30
0.0
 10
760.907455742108
 20
515.7318648102843
 30
0.0
 10
760.8385506092051
 20
515.680074918373
 30
0.0
 10
760.7508199773705
 20
515.6141444979467
 30
0.0
 10
760.6876374525834
 20
515.5666568545652
 30
0.0
 10
760.6570137806495
 20
515.5436402686225
 30
0.0
  0
SPLINE
  5
89
330
1F
100
AcDbEntity
  8
0
  6
Continuous
 62
     7
370
    25
100
AcDbSpline
210
0.0
220
0.0
230
1.0
 70
     8
 71
     3
 72
    11
 73
     7
 74
     0
 42
0.000000001
 43
0.00000001
 40
0.0
 40
0.0
 40
0.0
 40
0.0
 40
0.2723469010361305
 40
0.561898340320665
 40
0.7876539124316402
 40
1.0
 40
1.0
 40
1.0
 40
1.0
 10
718.0180898078045
 20
483.4973871741729
 30
0.0
 10
717.9789026637063
 20
483.4679354920513
 30
0.0
 10
717.8980528682913
 20
483.4071716234671
 30
0.0
 10
717.8120086675192
 20
483.3425016211556
 30
0.0
 10
717.7622129078462
 20
483.3050774962439
 30
0.0
 10
717.7565835120947
 20
483.3008472304041
 30
0.0
 10
717.7538549669346
 20
483.2987968378054
 30
0.0
  0
LINE
  5
8A
330
1F
100
AcDbEntity
  8
0
  6
Continuous
 62
     7
370
    25
100
AcDbLine
 10
760.9212486215
 20
515.7422299065
 30
0.0
 11
759.9962292381
 21
516.9049637892
 31
0.0
  0
LWPOLYLINE
  5
8B
330
1F
100
AcDbEntity
  8
0
  6
Continuous
 62
     7
370
    25
100
AcDbPolyline
 90
        3
 70
   128
 43
0.0
 10
752.779097683
 20
522.936851395
 10
751.3451514907
 20
523.7035124131
 10
750.407488472
 20
524.1468517609
  0
LWPOLYLINE
  5
8C
330
1F
100
AcDbEntity
  8
0
  6
Continuous
 62
     7
370
    25
100
AcDbPolyline
 90
        3
 70
   128
 43
0.0
 10
741.2878809639
 20
526.4499826856
 10
739.2146228023
 20
526.5202342101
 10
738.6263547607
 20
526.5111445017
  0
LWPOLYLINE
  5
8D
330
1F
100
AcDbEntity
  8
0
  6
Continuous
 62
     7
370
    25
100
AcDbPolyline
 90
        3
 70
   128
 43
0.0
 10
729.4102324315
 20
524.629243327
 10
727.1102493771
 20
523.593176765
 10
726.9862456389
 20
523.5297872253
  0
LINE
  5
8E
330
1F
100
AcDbEntity
  8
0
  6
Continuous
 62
     7
370
    25
100
AcDbLine
 10
719.4988070198
 20
517.8351054468
 30
0.0
 11
717.7924750515
 21
515.7934880384
 31
0.0
  0
LWPOLYLINE
  5
8F
330
1F
100
AcDbEntity
  8
0
  6
Continuous
 62
     7
370
    25
100
AcDbPolyline
 90
        3
 70
   128
 43
0.0
 10
713.5169109471
 20
507.4132016428
 10
713.436847008
 20
507.1463590987
 10
712.8656705983
 20
504.834604127
  0
LWPOLYLINE
  5
90
330
1F
100
AcDbEntity
  8
0
  6
Continuous
 62
     7
370
    25
100
AcDbPolyline
 90
        3
 70
   128
 43
0.0
 10
712.6495404311
 20
495.4278326161
 10
712.7693643935
 20
494.7110029437
 10
713.1812771924
 20
492.8235562086
  0
LINE
  5
91
330
1F
100
AcDbEntity
  8
0
  6
Continuous
 62
     7
370
    25
100
AcDbLine
 10
717.0686921247
 20
484.2529687133
 30
0.0
 11
717.7538549669
 21
483.2987968378
 31
0.0
  0
LINE
  5
92
330
1F
100
AcDbEntity
  8
0
  6
Continuous
 62
     7
370
    25
100
AcDbLine
 10
717.7538549669
 20
483.2987968378
 30
0.0
 11
718.6788743504
 21
482.1360629551
 31
0.0
  0
LWPOLYLINE
  5
93
330
1F
100
AcDbEntity
  8
0
  6
Continuous
 62
     7
370
    25
100
AcDbPolyline
 90
        3
 70
   128
 43
0.0
 10
725.8960059054
 20
476.1041762807
 10
727.3299520977
 20
475.3375133999
 10
728.2676188417
 20
474.8941749834
  0
LWPOLYLINE
  5
94
330
1F
100
AcDbEntity
  8
0
  6
Continuous
 62
     7
370
    25
100
AcDbPolyline
 90
        3
 70
   128
 43
0.0
 10
737.3872263499
 20
472.5910459213
 10
739.4604770609
 20
472.5207934656
 10
740.048752553
 20
472.5298822426
  0
LWPOLYLINE
  5
95
330
1F
100
AcDbEntity
  8
0
  6
Continuous
 62
     7
370
    25
100
AcDbPolyline
 90
        3
 70
   128
 43
0.0
 10
749.2648748823
 20
474.4117843487
 10
751.5648542114
 20
475.4478518419
 10
751.6888542243
 20
475.511239519
  0
LINE
  5
96
330
1F
100
AcDbEntity
  8
0
  6
Continuous
 62
     7
370
    25
100
AcDbLine
 10
759.1762928434
 20
481.2059217632
 30
0.0
 11
760.8826248117
 21
483.2475394044
 31
0.0
  0
LWPOLYLINE
  5
97
330
1F
100
AcDbEntity
  8
0
  6
Continuous
 62
     7
370
    25
100
AcDbPolyline
 90
        3
 70
   128
 43
0.0
 10
765.1581926413
 20
491.6278264985
 10
765.2382565804
 20
491.8946685769
 10
765.8094329901
 20
494.206423083
  0
LWPOLYLINE
  5
98
330
1F
100
AcDbEntity
  8
0
  6
Continuous
 62
     7
370
    25
100
AcDbPolyline
 90
        3
 70
   128
 43
0.0
 10
766.0255668827
 20
503.6131950595
 10
765.9057391949
 20
504.3300247319
 10
765.493826396
 20
506.2174710013
  0
LINE
  5
99
330
1F
100
AcDbEntity
  8
0
  6
Continuous
 62
     7
370
    25
100
AcDbLine
 10
761.6064114638
 20
514.7880582638
 30
0.0
 11
760.9212486215
 21
515.7422299065
 31
0.0
  0
SPLINE
  5
9A
330
1F
100
AcDbEntity
  8
0
  6
Continuous
 62
     7
370
    25
100
AcDbSpline
210
0.0
220
0.0
230
1.0
 70
     8
 71
     3
 72
     9
 73
     5
 74
     0
 42
0.000000001
 43
0.00000001
 40
0.0
 40
0.0
 40
0.0
 40
0.0
 40
0.5600001809445461
 40
1.0
 40
1.0
 40
1.0
 40
1.0
 10
708.8534696169456
 20
476.3357338063704
 30
0.0
 10
708.6986092794467
 20
476.2179535260502
 30
0.0
 10
708.4220730518375
 20
476.0076316648652
 30
0.0
 10
708.0578098098787
 20
475.7305903224275
 30
0.0
 10
707.8975340493282
 20
475.608692181884
 30
0.0
  0
SPLINE
  5
9B
330
1F
100
AcDbEntity
  8
0
  6
Continuous
 62
     7
370
    25
100
AcDbSpline
210
0.0
220
0.0
230
1.0
 70
     8
 71
     3
 72
     9
 73
     5
 74
     0
 42
0.000000001
 43
0.00000001
 40
0.0
 40
0.0
 40
0.0
 40
0.0
 40
0.5599995402799174
 40
0.9999999999999999
 40
0.9999999999999999
 40
0.9999999999999999
 40
0.9999999999999999
 10
770.7775695391258
 20
523.432333631097
 30
0.0
 10
770.5726842965836
 20
523.2765097570312
 30
0.0
 10
770.2068174916931
 20
522.9982526106272
 30
0.0
 10
769.9393264343987
 20
522.7948097519312
 30
0.0
 10
769.8216302462181
 20
522.7052948005783
 30
0.0
  0
ARC
  5
9C
330
1F
100
AcDbEntity
  8
0
  6
Continuous
 62
     7
370
    25
100
AcDbCircle
 10
739.3375517172
 20
499.5205137261
 30
0.0
 40
38.298998057
100
AcDbArc
 50
37.2549368278
 51
217.2549368278
  0
ARC
  5
9D
330
1F
100
AcDbEntity
  8
0
  6
Continuous
 62
     7
370
    25
100
AcDbCircle
 10
739.3375517172
 20
499.5205137261
 30
0.0
 40
39.50000000000011
100
AcDbArc
 50
37.2549368278
 51
217.2549368513
  0
ARC
  5
9E
330
1F
100
AcDbEntity
  8
0
  6
Continuous
 62
     7
370
    25
100
AcDbCircle
 10
739.3375517172
 20
499.5205137261
 30
0.0
 40
38.298998057
100
AcDbArc
 50
217.2549368278
 51
37.2549368278
  0
ARC
  5
9F
330
1F
100
AcDbEntity
  8
0
  6
Continuous
 62
     7
370
    25
100
AcDbCircle
 10
739.3375517172
 20
499.5205137261
 30
0.0
 40
39.50000000000002
100
AcDbArc
 50
217.2549368513
 51
37.2549368176
  0
SPLINE
  5
A0
330
1F
100
AcDbEntity
  8
0
  6
Continuous
 62
     7
370
    25
100
AcDbSpline
210
0.0
220
0.0
230
1.0
 70
     8
 71
     3
 72
    12
 73
     8
 74
     0
 42
0.000000001
 43
0.00000001
 40
0.0
 40
0.0
 40
0.0
 40
0.0
 40
0.3203751249398751
 40
0.5620061517307547
 40
0.7625107222555502
 40
0.8964658819623931
 40
0.9999999999999999
 40
0.9999999999999999
 40
0.9999999999999999
 40
0.9999999999999999
 10
757.3985098071655
 20
531.0196733601676
 30
0.0
 10
757.4393044767108
 20
531.1179353599103
 30
0.0
 10
757.5108670090596
 20
531.2903078196858
 30
0.0
 10
757.4774319795404
 20
531.5652380327986
 30
0.0
 10
757.3750494960365
 20
531.7716298922574
 30
0.0
 10
757.2421839333057
 20
531.9126255334652
 30
0.0
 10
757.1494932967765
 20
531.9671239013676
 30
0.0
 10
757.1090845532974
 20
531.9908826180088
 30
0.0
  0
LINE
  5
A1
330
1F
100
AcDbEntity
  8
0
  6
Continuous
 62
     7
370
    25
100
AcDbLine
 10
755.1967291303
 20
532.9665696748
 30
0.0
 11
757.1090845533
 21
531.990882618
 31
0.0
  0
SPLINE
  5
A2
330
1F
100
AcDbEntity
  8
0
  6
Continuous
 62
     7
370
    25
100
AcDbSpline
210
0.0
220
0.0
230
1.0
 70
     8
 71
     3
 72
    12
 73
     8
 74
     0
 42
0.000000001
 43
0.00000001
 40
0.0
 40
0.0
 40
0.0
 40
0.0
 40
0.1369217596954761
 40
0.2732889439031743
 40
0.4609298256946331
 40
0.7173060022273395
 40
1.0
 40
1.0
 40
1.0
 40
1.0
 10
755.1967291303238
 20
532.9665696747886
 30
0.0
 10
755.1392169194352
 20
532.9904044015585
 30
0.0
 10
755.0244254399055
 20
533.0379773170808
 30
0.0
 10
754.8244337649736
 20
533.0500490300186
 30
0.0
 10
754.6023496926489
 20
533.0018351148778
 30
0.0
 10
754.37965741396
 20
532.8647092457917
 30
0.0
 10
754.2883855367845
 20
532.7113217577089
 30
0.0
 10
754.2405216165146
 20
532.6308837659942
 30
0.0
  0
SPLINE
  5
A3
330
1F
100
AcDbEntity
  8
0
  6
Continuous
 62
     7
370
    25
100
AcDbSpline
210
0.0
220
0.0
230
1.0
 70
     8
 71
     3
 72
    11
 73
     7
 74
     0
 42
0.000000001
 43
0.00000001
 40
0.0
 40
0.0
 40
0.0
 40
0.0
 40
0.2603295776889064
 40
0.5282091173358847
 40
0.7614183805359739
 40
1.0
 40
1.0
 40
1.0
 40
1.0
 10
747.4065883226951
 20
517.4818510689126
 30
0.0
 10
748.0632034155932
 20
518.9373949277359
 30
0.0
 10
749.3954764585876
 20
521.8906956772629
 30
0.0
 10
751.2124455658858
 20
525.9184237637511
 30
0.0
 10
752.8614612541407
 20
529.5738694822021
 30
0.0
 10
753.7773583414609
 20
531.6041725456602
 30
0.0
 10
754.2405216165146
 20
532.6308837659942
 30
0.0
  0
SPLINE
  5
A4
330
1F
100
AcDbEntity
  8
0
  6
Continuous
 62
     7
370
    25
100
AcDbSpline
210
0.0
220
0.0
230
1.0
 70
     8
 71
     3
 72
    12
 73
     8
 74
     0
 42
0.000000001
 43
0.00000001
 40
0.0
 40
0.0
 40
0.0
 40
0.0
 40
0.2228989913791562
 40
0.4458305372641662
 40
0.6679306946101029
 40
0.8889154057184923
 40
1.0
 40
1.0
 40
1.0
 40
1.0
 10
747.4065883226951
 20
517.4818510689126
 30
0.0
 10
747.3812197255381
 20
517.406691503224
 30
0.0
 10
747.3304788261285
 20
517.2563613947557
 30
0.0
 10
747.3547452145511
 20
517.0145287113801
 30
0.0
 10
747.4525798091775
 20
516.7966327935644
 30
0.0
 10
747.5901022931566
 20
516.6490845678753
 30
0.0
 10
747.6923383592878
 20
516.5901775486255
 30
0.0
 10
747.7265386052688
 20
516.57047183591
 30
0.0
  0
LINE
  5
A5
330
1F
100
AcDbEntity
  8
0
  6
Continuous
 62
     7
370
    25
100
AcDbLine
 10
748.2183886834
 20
516.3195325561
 30
0.0
 11
747.7265386053
 21
516.5704718359
 31
0.0
  0
SPLINE
  5
A6
330
1F
100
AcDbEntity
  8
0
  6
Continuous
 62
     7
370
    25
100
AcDbSpline
210
0.0
220
0.0
230
1.0
 70
     8
 71
     3
 72
    12
 73
     8
 74
     0
 42
0.000000001
 43
0.00000001
 40
0.0
 40
0.0
 40
0.0
 40
0.0
 40
0.2201335968953015
 40
0.440256211960012
 40
0.6607464504004983
 40
0.8821632394304689
 40
0.9999999999999999
 40
0.9999999999999999
 40
0.9999999999999999
 40
0.9999999999999999
 10
748.2183886833748
 20
516.3195325561153
 30
0.0
 10
748.2917546392174
 20
516.2907332761158
 30
0.0
 10
748.4384828908868
 20
516.23313615283
 30
0.0
 10
748.679223488795
 20
516.244860413752
 30
0.0
 10
748.9005066940647
 20
516.3300751094597
 30
0.0
 10
749.0564873689608
 20
516.4597349844677
 30
0.0
 10
749.1214867499953
 20
516.5604159295591
 30
0.0
 10
749.1440637178978
 20
516.5953865774261
 30
0.0
  0
SPLINE
  5
A7
330
1F
100
AcDbEntity
  8
0
  6
Continuous
 62
     7
370
    25
100
AcDbSpline
210
0.0
220
0.0
230
1.0
 70
     8
 71
     3
 72
    11
 73
     7
 74
     0
 42
0.000000001
 43
0.00000001
 40
0.0
 40
0.0
 40
0.0
 40
0.0
 40
0.2832270722661752
 40
0.5762690337248554
 40
0.786190835122663
 40
1.0
 40
1.0
 40
1.0
 40
1.0
 10
757.3985098071655
 20
531.0196733601676
 30
0.0
 10
756.7292714513544
 20
529.8502062741735
 30
0.0
 10
755.367603099706
 20
527.4707456448392
 30
0.0
 10
753.1852199279328
 20
523.657124127653
 30
0.0
 10
751.0875479576401
 20
519.9915480566174
 30
0.0
 10
749.7958418914543
 20
517.7343430354954
 30
0.0
 10
749.1440637178978
 20
516.5953865774261
 30
0.0
  0
SPLINE
  5
A8
330
1F
100
AcDbEntity
  8
0
  6
Continuous
 62
     7
370
    25
100
AcDbSpline
210
0.0
220
0.0
230
1.0
 70
     8
 71
     3
 72
    13
 73
     9
 74
     0
 42
0.000000001
 43
0.00000001
 40
0.0
 40
0.0
 40
0.0
 40
0.0
 40
0.3201775661117995
 40
0.4946662389545392
 40
0.6890185211711399
 40
0.8387702012950454
 40
0.967234216127243
 40
0.9999999999999999
 40
0.9999999999999999
 40
0.9999999999999999
 40
0.9999999999999999
 10
741.9429360099396
 20
535.7366284854995
 30
0.0
 10
741.9373020710162
 20
535.8430118887233
 30
0.0
 10
741.9285977779219
 20
536.0073715551389
 30
0.0
 10
741.8062040613069
 20
536.2191627224006
 30
0.0
 10
741.664667117979
 20
536.3595099952098
 30
0.0
 10
741.4862448624775
 20
536.4516608568176
 30
0.0
 10
741.3481001909579
 20
536.4823594308419
 30
0.0
 10
741.2755310101057
 20
536.4854566777573
 30
0.0
 10
741.260783202227
 20
536.4860861130344
 30
0.0
  0
LINE
  5
A9
330
1F
100
AcDbEntity
  8
0
  6
Continuous
 62
     7
370
    25
100
AcDbLine
 10
739.1144795485
 20
536.5354089566
 30
0.0
 11
741.2607832022
 21
536.486086113
 31
0.0
  0
SPLINE
  5
AA
330
1F
100
AcDbEntity
  8
0
  6
Continuous
 62
     7
370
    25
100
AcDbSpline
210
0.0
220
0.0
230
1.0
 70
     8
 71
     3
 72
    12
 73
     8
 74
     0
 42
0.000000001
 43
0.00000001
 40
0.0
 40
0.0
 40
0.0
 40
0.0
 40
0.1369198036459301
 40
0.2732911896791616
 40
0.4609300873387422
 40
0.7173053753119351
 40
1.0
 40
1.0
 40
1.0
 40
1.0
 10
739.11447954851
 20
536.535408956586
 30
0.0
 10
739.052322418539
 20
536.531929345412
 30
0.0
 10
738.9282571223257
 20
536.5249840602736
 30
0.0
 10
738.7428282445017
 20
536.449093072249
 30
0.0
 10
738.5636635688733
 20
536.3092860925387
 30
0.0
 10
738.4225173881964
 20
536.0891228706208
 30
0.0
 10
738.4068362418307
 20
535.9113225464154
 30
0.0
 10
738.3986128635963
 20
535.8180819578754
 30
0.0
  0
SPLINE
  5
AB
330
1F
100
AcDbEntity
  8
0
  6
Continuous
 62
     7
370
    25
100
AcDbSpline
210
0.0
220
0.0
230
1.0
 70
     8
 71
     3
 72
    11
 73
     7
 74
     0
 42
0.000000001
 43
0.00000001
 40
0.0
 40
0.0
 40
0.0
 40
0.0
 40
0.2603297637629547
 40
0.5282089609242877
 40
0.7614184852007091
 40
1.0
 40
1.0
 40
1.0
 40
1.0
 10
738.8143701620659
 20
519.2041440435039
 30
0.0
 10
738.7744239248642
 20
520.8004396465399
 30
0.0
 10
738.6933730294917
 20
524.0393226294915
 30
0.0
 10
738.5828371201891
 20
528.456531484572
 30
0.0
 10
738.4825146427363
 20
532.4654572874232
 30
0.0
 10
738.4267916177619
 20
534.6920893106839
 30
0.0
 10
738.3986128635963
 20
535.8180819578754
 30
0.0
  0
SPLINE
  5
AC
330
1F
100
AcDbEntity
  8
0
  6
Continuous
 62
     7
370
    25
100
AcDbSpline
210
0.0
220
0.0
230
1.0
 70
     8
 71
     3
 72
    12
 73
     8
 74
     0
 42
0.000000001
 43
0.00000001
 40
0.0
 40
0.0
 40
0.0
 40
0.0
 40
0.2228976041930708
 40
0.4458322008899563
 40
0.6679309627360053
 40
0.8889137761499992
 40
1.0
 40
1.0
 40
1.0
 40
1.0
 10
738.8143701620659
 20
519.2041440435039
 30
0.0
 10
738.8241230796871
 20
519.1254204184038
 30
0.0
 10
738.843630533542
 20
518.9679601030832
 30
0.0
 10
738.970427939452
 20
518.7606078629836
 30
0.0
 10
739.1531141687318
 20
518.6067370324907
 30
0.0
 10
739.341038273817
 20
518.5334738126378
 30
0.0
 10
739.4587086980569
 20
518.5247579274388
 30
0.0
 10
739.4980726905426
 20
518.5218422241794
 30
0.0
  0
LINE
  5
AD
330
1F
100
AcDbEntity
  8
0
  6
Continuous
 62
     7
370
    25
100
AcDbLine
 10
740.050086207
 20
518.5091538854
 30
0.0
 11
739.4980726905
 21
518.5218422242
 31
0.0
  0
SPLINE
  5
AE
330
1F
100
AcDbEntity
  8
0
  6
Continuous
 62
     7
370
    25
100
AcDbSpline
210
0.0
220
0.0
230
1.0
 70
     8
 71
     3
 72
    12
 73
     8
 74
     0
 42
0.000000001
 43
0.00000001
 40
0.0
 40
0.0
 40
0.0
 40
0.0
 40
0.2201326380449675
 40
0.4402553234498444
 40
0.660741797174786
 40
0.8821607392147024
 40
1.0
 40
1.0
 40
1.0
 40
1.0
 10
740.0500862069687
 20
518.5091538854228
 30
0.0
 10
740.1286814252991
 20
518.5150418101326
 30
0.0
 10
740.2858683085116
 20
518.5268173933474
 30
0.0
 10
740.4976867860347
 20
518.6418229179608
 30
0.0
 10
740.6600734991409
 20
518.8146193336063
 30
0.0
 10
740.7443587354219
 20
518.9991127443096
 30
0.0
 10
740.7592357360012
 20
519.1180280297607
 30
0.0
 10
740.7644031711181
 20
519.1593325265037
 30
0.0
  0
SPLINE
  5
AF
330
1F
100
AcDbEntity
  8
0
  6
Continuous
 62
     7
370
    25
100
AcDbSpline
210
0.0
220
0.0
230
1.0
 70
     8
 71
     3
 72
    11
 73
     7
 74
     0
 42
0.000000001
 43
0.00000001
 40
0.0
 40
0.0
 40
0.0
 40
0.0
 40
0.2832270320261903
 40
0.5762690623995413
 40
0.7861908761286895
 40
1.0
 40
1.0
 40
1.0
 40
1.0
 10
741.9429360099396
 20
535.7366284854995
 30
0.0
 10
741.8473866721981
 20
534.3926045294811
 30
0.0
 10
741.6529768135092
 20
531.6579805797952
 30
0.0
 10
741.3413861662998
 20
527.2751267969519
 30
0.0
 10
741.0418933429721
 20
523.0624118757081
 30
0.0
 10
740.8574638807307
 20
520.468291800572
 30
0.0
 10
740.7644031711181
 20
519.1593325265037
 30
0.0
  0
SPLINE
  5
B0
330
1F
100
AcDbEntity
  8
0
  6
Continuous
 62
     7
370
    25
100
AcDbSpline
210
0.0
220
0.0
230
1.0
 70
     8
 71
     3
 72
    13
 73
     9
 74
     0
 42
0.000000001
 43
0.00000001
 40
0.0
 40
0.0
 40
0.0
 40
0.0
 40
0.1923256888430514
 40
0.4540883867966575
 40
0.6566891215419028
 40
0.8131137190441675
 40
0.9441998587776871
 40
1.0
 40
1.0
 40
1.0
 40
1.0
 10
725.971338725861
 20
533.2805408664333
 30
0.0
 10
725.9433058417858
 20
533.3374765644804
 30
0.0
 10
725.8771191187144
 20
533.4719039487412
 30
0.0
 10
725.7059029447092
 20
533.6237329163768
 30
0.0
 10
725.4895217678024
 20
533.7131323536357
 30
0.0
 10
725.2853642102272
 20
533.7295287621577
 30
0.0
 10
725.1327417634348
 20
533.701749455113
 30
0.0
 10
725.0548270813521
 20
533.6694464608613
 30
0.0
 10
725.0315634675583
 20
533.6598014958488
 30
0.0
  0
LINE
  5
B1
330
1F
100
AcDbEntity
  8
0
  6
Continuous
 62
     7
370
    25
100
AcDbLine
 10
723.0764081843
 20
532.772992415
 30
0.0
 11
725.0315634676
 21
533.6598014958
 31
0.0
  0
SPLINE
  5
B2
330
1F
100
AcDbEntity
  8
0
  6
Continuous
 62
     7
370
    25
100
AcDbSpline
210
0.0
220
0.0
230
1.0
 70
     8
 71
     3
 72
    12
 73
     8
 74
     0
 42
0.000000001
 43
0.00000001
 40
0.0
 40
0.0
 40
0.0
 40
0.0
 40
0.1369186649953429
 40
0.2732895564236092
 40
0.460928480413142
 40
0.717305890870643
 40
1.0
 40
1.0
 40
1.0
 40
1.0
 10
723.0764081843456
 20
532.7729924150096
 30
0.0
 10
723.0219159180805
 20
532.7428900887384
 30
0.0
 10
722.9131493939796
 20
532.6828058672461
 30
0.0
 10
722.7790162374932
 20
532.5339728039067
 30
0.0
 10
722.6782518311421
 20
532.3302767871928
 30
0.0
 10
722.646610923707
 20
532.070672143826
 30
0.0
 10
722.7096277296431
 20
531.9036769847363
 30
0.0
 10
722.7426743276676
 20
531.8161031730758
 30
0.0
  0
SPLINE
  5
B3
330
1F
100
AcDbEntity
  8
0
  6
Continuous
 62
     7
370
    25
100
AcDbSpline
210
0.0
220
0.0
230
1.0
 70
     8
 71
     3
 72
    11
 73
     7
 74
     0
 42
0.000000001
 43
0.00000001
 40
0.0
 40
0.0
 40
0.0
 40
0.0
 40
0.2603296840115074
 40
0.5282089945276078
 40
0.7614184521414755
 40
0.9999999999999999
 40
0.9999999999999999
 40
0.9999999999999999
 40
0.9999999999999999
 10
730.3257746763786
 20
517.0278536655294
 30
0.0
 10
729.5971774117799
 20
518.4487333764882
 30
0.0
 10
728.1188533781201
 20
521.3316986684409
 30
0.0
 10
726.1027063181463
 20
525.263505419176
 30
0.0
 10
724.2729108679206
 20
528.8318933757427
 30
0.0
 10
723.2566105723203
 20
530.8138440215308
 30
0.0
 10
722.7426743276676
 20
531.8161031730758
 30
0.0
  0
SPLINE
  5
B4
330
1F
100
AcDbEntity
  8
0
  6
Continuous
 62
     7
370
    25
100
AcDbSpline
210
0.0
220
0.0
230
1.0
 70
     8
 71
     3
 72
    12
 73
     8
 74
     0
 42
0.000000001
 43
0.00000001
 40
0.0
 40
0.0
 40
0.0
 40
0.0
 40
0.2228993562937837
 40
0.4458323036721392
 40
0.667930918645298
 40
0.8889146057777197
 40
1.0
 40
1.0
 40
1.0
 40
1.0
 10
730.3257746763786
 20
517.0278536655294
 30
0.0
 10
730.3687176250769
 20
516.9611561236045
 30
0.0
 10
730.4546099940052
 20
516.8277509883898
 30
0.0
 10
730.6588207921607
 20
516.6959531573293
 30
0.0
 10
730.8901759013766
 20
516.6365845345118
 30
0.0
 10
731.0912776293864
 20
516.6521105959116
 30
0.0
 10
731.2010770512587
 20
516.6953121631569
 30
0.0
 10
731.2378076978287
 20
516.7097641654598
 30
0.0
  0
LINE
  5
B5
330
1F
100
AcDbEntity
  8
0
  6
Continuous
 62
     7
370
    25
100
AcDbLine
 10
731.7406585582
 20
516.937845064
 30
0.0
 11
731.2378076978
 21
516.7097641655
 31
0.0
  0
SPLINE
  5
B6
330
1F
100
AcDbEntity
  8
0
  6
Continuous
 62
     7
370
    25
100
AcDbSpline
210
0.0
220
0.0
230
1.0
 70
     8
 71
     3
 72
    12
 73
     8
 74
     0
 42
0.000000001
 43
0.00000001
 40
0.0
 40
0.0
 40
0.0
 40
0.0
 40
0.2201346723396393
 40
0.4402552941549429
 40
0.6607439720813992
 40
0.8821600277147549
 40
1.0
 40
1.0
 40
1.0
 40
1.0
 10
731.7406585581859
 20
516.9378450639831
 30
0.0
 10
731.8089178759344
 20
516.9772499008473
 30
0.0
 10
731.9454321546473
 20
517.056057059485
 30
0.0
 10
732.0863662040545
 20
517.251584556166
 30
0.0
 10
732.1577115416898
 20
517.4777210396676
 30
0.0
 10
732.1535902635204
 20
517.680514140648
 30
0.0
 10
732.1154027435252
 20
517.7941083088194
 30
0.0
 10
732.1021383770069
 20
517.8335650392162
 30
0.0
  0
SPLINE
  5
B7
330
1F
100
AcDbEntity
  8
0
  6
Continuous
 62
     7
370
    25
100
AcDbSpline
210
0.0
220
0.0
230
1.0
 70
     8
 71
     3
 72
    11
 73
     7
 74
     0
 42
0.000000001
 43
0.00000001
 40
0.0
 40
0.0
 40
0.0
 40
0.0
 40
0.2832270604850629
 40
0.5762690319308588
 40
0.7861908820626994
 40
1.0
 40
1.0
 40
1.0
 40
1.0
 10
725.971338725861
 20
533.2805408664333
 30
0.0
 10
726.4684005220613
 20
532.0281586932397
 30
0.0
 10
727.4797492244616
 20
529.4799944700976
 30
0.0
 10
729.1006683608153
 20
525.3959868428522
 30
0.0
 10
730.658659667271
 20
521.4705147215456
 30
0.0
 10
731.6180450368953
 20
519.0532734475646
 30
0.0
 10
732.1021383770069
 20
517.8335650392162
 30
0.0
  0
SPLINE
  5
B8
330
1F
100
AcDbEntity
  8
0
  6
Continuous
 62
     7
370
    25
100
AcDbSpline
210
0.0
220
0.0
230
1.0
 70
     8
 71
     3
 72
    12
 73
     8
 74
     0
 42
0.000000001
 43
0.00000001
 40
0.0
 40
0.0
 40
0.0
 40
0.0
 40
0.3203303595754899
 40
0.5619257542542972
 40
0.7389291149257466
 40
0.8801328406778857
 40
1.0
 40
1.0
 40
1.0
 40
1.0
 10
712.6470854647716
 20
524.1378663607227
 30
0.0
 10
712.560404115179
 20
524.1995196099316
 30
0.0
 10
712.4083470862602
 20
524.3076721703379
 30
0.0
 10
712.1409498833893
 20
524.3352234274092
 30
0.0
 10
711.925064799103
 20
524.2871020718316
 30
0.0
 10
711.7555427257646
 20
524.1964363660036
 30
0.0
 10
711.6734910674506
 20
524.1110275424634
 30
0.0
 10
711.6358181603512
 20
524.0718132384407
 30
0.0
  0
LINE
  5
B9
330
1F
100
AcDbEntity
  8
0
  6
Continuous
 62
     7
370
    25
100
AcDbLine
 10
710.2590551742
 20
522.4245159455
 30
0.0
 11
711.6358181604
 21
524.0718132384
 31
0.0
  0
SPLINE
  5
BA
330
1F
100
AcDbEntity
  8
0
  6
Continuous
 62
     7
370
    25
100
AcDbSpline
210
0.0
220
0.0
230
1.0
 70
     8
 71
     3
 72
    12
 73
     8
 74
     0
 42
0.000000001
 43
0.00000001
 40
0.0
 40
0.0
 40
0.0
 40
0.0
 40
0.1369179145171892
 40
0.2732885318319946
 40
0.4609277588514635
 40
0.7173061235614979
 40
1.0
 40
1.0
 40
1.0
 40
1.0
 10
710.259055174168
 20
522.4245159454929
 30
0.0
 10
710.2230218194342
 20
522.3737509122985
 30
0.0
 10
710.1510991448383
 20
522.2724237672056
 30
0.0
 10
710.0948246678981
 20
522.0801335056964
 30
0.0
 10
710.0924137575522
 20
521.8528893969008
 30
0.0
 10
710.1765504657299
 20
521.6052660487978
 30
0.0
 10
710.3057819355454
 20
521.4821510913065
 30
0.0
 10
710.3735519714912
 20
521.4175886042701
 30
0.0
  0
SPLINE
  5
BB
330
1F
100
AcDbEntity
  8
0
  6
Continuous
 62
     7
370
    25
100
AcDbSpline
210
0.0
220
0.0
230
1.0
 70
     8
 71
     3
 72
    11
 73
     7
 74
     0
 42
0.000000001
 43
0.00000001
 40
0.0
 40
0.0
 40
0.0
 40
0.0
 40
0.2603296728047201
 40
0.5282089563328579
 40
0.7614184506165413
 40
1.0
 40
1.0
 40
1.0
 40
1.0
 10
723.6220738061031
 20
511.384018374263
 30
0.0
 10
722.3491333107199
 20
512.3480600635843
 30
0.0
 10
719.7663368000641
 20
514.3041008371604
 30
0.0
 10
716.2439048790385
 20
516.9717651077724
 30
0.0
 10
713.0470489418097
 20
519.3928531046884
 30
0.0
 10
711.2714568958794
 20
520.7375728811023
 30
0.0
 10
710.3735519714912
 20
521.4175886042701
 30
0.0
  0
SPLINE
  5
BC
330
1F
100
AcDbEntity
  8
0
  6
Continuous
 62
     7
370
    25
100
AcDbSpline
210
0.0
220
0.0
230
1.0
 70
     8
 71
     3
 72
    12
 73
     8
 74
     0
 42
0.000000001
 43
0.00000001
 40
0.0
 40
0.0
 40
0.0
 40
0.0
 40
0.2228983475290409
 40
0.4458313673879812
 40
0.6679307046074556
 40
0.8889139757057889
 40
1.0
 40
1.0
 40
1.0
 40
1.0
 10
723.6220738061031
 20
511.384018374263
 30
0.0
 10
723.6897026571118
 20
511.3425588280527
 30
0.0
 10
723.8249708789461
 20
511.2596332865082
 30
0.0
 10
724.0661424470983
 20
511.2294897608753
 30
0.0
 10
724.300344590165
 20
511.2763828782504
 30
0.0
 10
724.4747945488964
 20
511.3776254769928
 30
0.0
 10
724.5549753726988
 20
511.4641891679378
 30
0.0
 10
724.5817979939541
 20
511.4931470282661
 30
0.0
  0
LINE
  5
BD
330
1F
100
AcDbEntity
  8
0
  6
Continuous
 62
     7
370
    25
100
AcDbLine
 10
724.9358905621
 20
511.9168205686
 30
0.0
 11
724.581797994
 21
511.4931470283
 31
0.0
  0
SPLINE
  5
BE
330
1F
100
AcDbEntity
  8
0
  6
Continuous
 62
     7
370
    25
100
AcDbSpline
210
0.0
220
0.0
230
1.0
 70
     8
 71
     3
 72
    12
 73
     8
 74
     0
 42
0.000000001
 43
0.00000001
 40
0.0
 40
0.0
 40
0.0
 40
0.0
 40
0.2201360279925989
 40
0.4402604950902736
 40
0.6607526108728909
 40
0.8834153682218717
 40
1.0
 40
1.0
 40
1.0
 40
1.0
 10
724.9358905621132
 20
511.9168205686199
 30
0.0
 10
724.9802928313683
 20
511.9819390777459
 30
0.0
 10
725.069095038002
 20
512.1121726761661
 30
0.0
 10
725.1112332460888
 20
512.3494854795607
 30
0.0
 10
725.0773429864465
 20
512.5846239969493
 30
0.0
 10
724.9854377623917
 20
512.7654931457847
 30
0.0
 10
724.9017103619144
 20
512.8512166488623
 30
0.0
 10
724.8729368813595
 20
512.8806761034118
 30
0.0
  0
SPLINE
  5
BF
330
1F
100
AcDbEntity
  8
0
  6
Continuous
 62
     7
370
    25
100
AcDbSpline
210
0.0
220
0.0
230
1.0
 70
     8
 71
     3
 72
    11
 73
     7
 74
     0
 42
0.000000001
 43
0.00000001
 40
0.0
 40
0.0
 40
0.0
 40
0.0
 40
0.2832270569672383
 40
0.5762690015008917
 40
0.7861907014115868
 40
1.0
 40
1.0
 40
1.0
 40
1.0
 10
712.6470854647716
 20
524.1378663607227
 30
0.0
 10
713.6383112306856
 20
523.2251763455507
 30
0.0
 10
715.6551124801912
 20
521.3681681580038
 30
0.0
 10
718.8874888619683
 20
518.3918899319128
 30
0.0
 10
721.9943905700343
 20
515.5311510866669
 30
0.0
 10
723.90757050281
 20
513.7695551275061
 30
0.0
 10
724.8729368813595
 20
512.8806761034118
 30
0.0
  0
SPLINE
  5
C0
330
1F
100
AcDbEntity
  8
0
  6
Continuous
 62
     7
370
    25
100
AcDbSpline
210
0.0
220
0.0
230
1.0
 70
     8
 71
     3
 72
    12
 73
     8
 74
     0
 42
0.000000001
 43
0.00000001
 40
0.0
 40
0.0
 40
0.0
 40
0.0
 40
0.3203290699850189
 40
0.5619245415092051
 40
0.7389302075145898
 40
0.8801315112782884
 40
1.0
 40
1.0
 40
1.0
 40
1.0
 10
704.6092016764244
 20
510.1194220163213
 30
0.0
 10
704.5043553425965
 20
510.1373596395089
 30
0.0
 10
704.3204328279526
 20
510.1688260021648
 30
0.0
 10
704.0675616320575
 20
510.077633023491
 30
0.0
 10
703.8939336121853
 20
509.9406069807318
 30
0.0
 10
703.7805405865594
 20
509.7853661859343
 30
0.0
 10
703.7436717979492
 20
509.672815344856
 30
0.0
 10
703.7267437346538
 20
509.62113836187
 30
0.0
  0
LINE
  5
C1
330
1F
100
AcDbEntity
  8
0
  6
Continuous
 62
     7
370
    25
100
AcDbLine
 10
703.2010568448
 20
507.5396212317
 30
0.0
 11
703.7267437347
 21
509.6211383619
 31
0.0
  0
SPLINE
  5
C2
330
1F
100
AcDbEntity
  8
0
  6
Continuous
 62
     7
370
    25
100
AcDbSpline
210
0.0
220
0.0
230
1.0
 70
     8
 71
     3
 72
    12
 73
     8
 74
     0
 42
0.000000001
 43
0.00000001
 40
0.0
 40
0.0
 40
0.0
 40
0.0
 40
0.1369204013265794
 40
0.2732905827496547
 40
0.4609293040560376
 40
0.7173048418729572
 40
1.0
 40
1.0
 40
1.0
 40
1.0
 10
703.201056844767
 20
507.5396212317335
 30
0.0
 10
703.1906176808186
 20
507.4782479751444
 30
0.0
 10
703.1697813031041
 20
507.3557480927605
 30
0.0
 10
703.2025167756656
 20
507.1580839820673
 30
0.0
 10
703.298941541755
 20
506.9522996049112
 30
0.0
 10
703.482180924285
 20
506.7657047676785
 30
0.0
 10
703.6520325125206
 20
506.7108513002709
 30
0.0
 10
703.7411047287544
 20
506.6820854820596
 30
0.0
  0
SPLINE
  5
C3
330
1F
100
AcDbEntity
  8
0
  6
Continuous
 62
     7
370
    25
100
AcDbSpline
210
0.0
220
0.0
230
1.0
 70
     8
 71
     3
 72
    11
 73
     7
 74
     0
 42
0.000000001
 43
0.00000001
 40
0.0
 40
0.0
 40
0.0
 40
0.0
 40
0.2603297401341978
 40
0.5282090129492215
 40
0.7614184193481962
 40
1.0
 40
1.0
 40
1.0
 40
1.0
 10
720.0310131676754
 20
503.3904711284029
 30
0.0
 10
718.4658511690021
 20
503.7067352675102
 30
0.0
 10
715.2901376527565
 20
504.3484351695767
 30
0.0
 10
710.9590792342676
 20
505.2235875424348
 30
0.0
 10
707.0283431733798
 20
506.0178529205802
 30
0.0
 10
704.8451374289958
 20
506.459000214352
 30
0.0
 10
703.7411047287544
 20
506.6820854820596
 30
0.0
  0
SPLINE
  5
C4
330
1F
100
AcDbEntity
  8
0
  6
Continuous
 62
     7
370
    25
100
AcDbSpline
210
0.0
220
0.0
230
1.0
 70
     8
 71
     3
 72
    12
 73
     8
 74
     0
 42
0.000000001
 43
0.00000001
 40
0.0
 40
0.0
 40
0.0
 40
0.0
 40
0.2228992641487447
 40
0.4458323437998281
 40
0.6679303329796918
 40
0.8889138732250462
 40
1.0
 40
1.0
 40
1.0
 40
1.0
 10
720.0310131676754
 20
503.3904711284029
 30
0.0
 10
720.1099336908871
 20
503.3824600110375
 30
0.0
 10
720.2677867101503
 20
503.3664365609595
 30
0.0
 10
720.4981542744167
 20
503.4439195792971
 30
0.0
 10
720.688813621582
 20
503.5877876984707
 30
0.0
 10
720.8020670841742
 20
503.7546911332278
 30
0.0
 10
720.836744925221
 20
503.8674733060637
 30
0.0
 10
720.8483455844482
 20
503.9052019395219
 30
0.0
  0
LINE
  5
C5
330
1F
100
AcDbEntity
  8
0
  6
Continuous
 62
     7
370
    25
100
AcDbLine
 10
720.9835475453
 20
504.4405540951
 30
0.0
 11
720.8483455844
 21
503.9052019395
 31
0.0
  0
SPLINE
  5
C6
330
1F
100
AcDbEntity
  8
0
  6
Continuous
 62
     7
370
    25
100
AcDbSpline
210
0.0
220
0.0
230
1.0
 70
     8
 71
     3
 72
    12
 73
     8
 74
     0
 42
0.000000001
 43
0.00000001
 40
0.0
 40
0.0
 40
0.0
 40
0.0
 40
0.2200862519938698
 40
0.4401591856312375
 40
0.5885351604520185
 40
0.8110222927627346
 40
1.0
 40
1.0
 40
1.0
 40
1.0
 10
720.9835475452503
 20
504.4405540950881
 30
0.0
 10
720.9953257086688
 20
504.5184672741192
 30
0.0
 10
721.0188813227591
 20
504.674288917323
 30
0.0
 10
720.9606233716072
 20
504.8813627761497
 30
0.0
 10
720.853356056973
 20
505.0613667655993
 30
0.0
 10
720.7065814106733
 20
505.2028358525484
 30
0.0
 10
720.5709280887168
 20
505.2568397570299
 30
0.0
 10
720.5086251862606
 20
505.2816426880943
 30
0.0
  0
SPLINE
  5
C7
330
1F
100
AcDbEntity
  8
0
  6
Continuous
 62
     7
370
    25
100
AcDbSpline
210
0.0
220
0.0
230
1.0
 70
     8
 71
     3
 72
    11
 73
     7
 74
     0
 42
0.000000001
 43
0.00000001
 40
0.0
 40
0.0
 40
0.0
 40
0.0
 40
0.2832271128768589
 40
0.5762691221474905
 40
0.7861907882145092
 40
1.0
 40
1.0
 40
1.0
 40
1.0
 10
704.6092016764244
 20
510.1194220163213
 30
0.0
 10
705.8982668178727
 20
509.7271928247009
 30
0.0
 10
708.5210681094154
 20
508.9291422085723
 30
0.0
 10
712.7246993930439
 20
507.6500880661869
 30
0.0
 10
716.7651481069403
 20
506.4206840048243
 30
0.0
 10
719.2531905921459
 20
505.6636383148468
 30
0.0
 10
720.5086251862606
 20
505.2816426880943
 30
0.0
  0
SPLINE
  5
C8
330
1F
100
AcDbEntity
  8
0
  6
Continuous
 62
     7
370
    25
100
AcDbSpline
210
0.0
220
0.0
230
1.0
 70
     8
 71
     3
 72
    12
 73
     8
 74
     0
 42
0.000000001
 43
0.00000001
 40
0.0
 40
0.0
 40
0.0
 40
0.0
 40
0.3203305153930832
 40
0.5619254315289
 40
0.7389294967389576
 40
0.8801317552192119
 40
1.0
 40
1.0
 40
1.0
 40
1.0
 10
703.4496976204475
 20
494.001733282237
 30
0.0
 10
703.3474502343344
 20
493.9724035275321
 30
0.0
 10
703.168087345682
 20
493.9209531215382
 30
0.0
 10
702.9798234755104
 20
493.7290749479427
 30
0.0
 10
702.8828490194327
 20
493.5302837022138
 30
0.0
 10
702.8480352916202
 20
493.3412179155187
 30
0.0
 10
702.8636537034059
 20
493.2238159178694
 30
0.0
 10
702.8708247609695
 20
493.1699118145096
 30
0.0
  0
LINE
  5
C9
330
1F
100
AcDbEntity
  8
0
  6
Continuous
 62
     7
370
    25
100
AcDbLine
 10
703.3003358312
 20
491.0664434113
 30
0.0
 11
702.870824761
 21
493.1699118145
 31
0.0
  0
SPLINE
  5
CA
330
1F
100
AcDbEntity
  8
0
  6
Continuous
 62
     7
370
    25
100
AcDbSpline
210
0.0
220
0.0
230
1.0
 70
     8
 71
     3
 72
    12
 73
     8
 74
     0
 42
0.000000001
 43
0.00000001
 40
0.0
 40
0.0
 40
0.0
 40
0.0
 40
0.1369201896025089
 40
0.2732897042676069
 40
0.4609297927212671
 40
0.7173069950849855
 40
1.0
 40
1.0
 40
1.0
 40
1.0
 10
703.300335831221
 20
491.0664434112894
 30
0.0
 10
703.3175590837064
 20
491.0066186996168
 30
0.0
 10
703.3519363190284
 20
490.8872098833686
 30
0.0
 10
703.467188599188
 20
490.7233207822358
 30
0.0
 10
703.6433546230639
 20
490.5797534838272
 30
0.0
 10
703.8894105211316
 20
490.4911425799697
 30
0.0
 10
704.0662397754904
 20
490.5154181786512
 30
0.0
 10
704.1589705415329
 20
490.528148509218
 30
0.0
  0
SPLINE
  5
CB
330
1F
100
AcDbEntity
  8
0
  6
Continuous
 62
     7
370
    25
100
AcDbSpline
210
0.0
220
0.0
230
1.0
 70
     8
 71
     3
 72
    11
 73
     7
 74
     0
 42
0.000000001
 43
0.00000001
 40
0.0
 40
0.0
 40
0.0
 40
0.0
 40
0.2603295487886984
 40
0.5282089898940391
 40
0.761418337616645
 40
1.0
 40
1.0
 40
1.0
 40
1.0
 10
720.2638475366196
 20
494.6304314337956
 30
0.0
 10
718.7164649290713
 20
494.2362773018885
 30
0.0
 10
715.576823624749
 20
493.4365380604312
 30
0.0
 10
711.2949597576144
 20
492.3458498781556
 30
0.0
 10
707.4088714798586
 20
491.3559722391656
 30
0.0
 10
705.250463497941
 20
490.8061766053146
 30
0.0
 10
704.1589705415329
 20
490.528148509218
 30
0.0
  0
SPLINE
  5
CC
330
1F
100
AcDbEntity
  8
0
  6
Continuous
 62
     7
370
    25
100
AcDbSpline
210
0.0
220
0.0
230
1.0
 70
     8
 71
     3
 72
    12
 73
     8
 74
     0
 42
0.000000001
 43
0.00000001
 40
0.0
 40
0.0
 40
0.0
 40
0.0
 40
0.2229016632999449
 40
0.4458321380365625
 40
0.667931905571607
 40
0.8889146800366062
 40
1.0
 40
1.0
 40
1.0
 40
1.0
 10
720.2638475366196
 20
494.6304314337956
 30
0.0
 10
720.338429791285
 20
494.6574558067289
 30
0.0
 10
720.4876039408396
 20
494.711508045665
 30
0.0
 10
720.6615350501863
 20
494.8812743612908
 30
0.0
 10
720.7709026439954
 20
495.0936144662288
 30
0.0
 10
720.8005101938936
 20
495.2931302627384
 30
0.0
 10
720.7828254271104
 20
495.4097897231943
 30
0.0
 10
720.7769094176849
 20
495.4488153137552
 30
0.0
  0
LINE
  5
CD
330
1F
100
AcDbEntity
  8
0
  6
Continuous
 62
     7
370
    25
100
AcDbLine
 10
720.6664396592
 20
495.9898131468
 30
0.0
 11
720.7769094177
 21
495.4488153138
 31
0.0
  0
SPLINE
  5
CE
330
1F
100
AcDbEntity
  8
0
  6
Continuous
 62
     7
370
    25
100
AcDbSpline
210
0.0
220
0.0
230
1.0
 70
     8
 71
     3
 72
    13
 73
     9
 74
     0
 42
0.000000001
 43
0.00000001
 40
0.0
 40
0.0
 40
0.0
 40
0.0
 40
0.2200621712190699
 40
0.2941795035648707
 40
0.515219241014826
 40
0.736231021287305
 40
0.9580132119167373
 40
1.0
 40
1.0
 40
1.0
 40
1.0
 10
720.6664396591743
 20
495.9898131467687
 30
0.0
 10
720.6436106704773
 20
496.0653328484532
 30
0.0
 10
720.6130928376097
 20
496.1662877205597
 30
0.0
 10
720.5093034388381
 20
496.3174909920828
 30
0.0
 10
720.3736075395739
 20
496.4453921256799
 30
0.0
 10
720.154801724356
 20
496.5412235659717
 30
0.0
 10
719.9804529908109
 20
496.5558849207535
 30
0.0
 10
719.8882869347694
 20
496.5435153287302
 30
0.0
 10
719.8736159272751
 20
496.5415463350998
 30
0.0
  0
SPLINE
  5
CF
330
1F
100
AcDbEntity
  8
0
  6
Continuous
 62
     7
370
    25
100
AcDbSpline
210
0.0
220
0.0
230
1.0
 70
     8
 71
     3
 72
    11
 73
     7
 74
     0
 42
0.000000001
 43
0.00000001
 40
0.0
 40
0.0
 40
0.0
 40
0.0
 40
0.283227031869557
 40
0.5762689749339464
 40
0.7861908279611766
 40
1.0
 40
1.0
 40
1.0
 40
1.0
 10
703.4496976204475
 20
494.001733282237
 30
0.0
 10
704.7812862613481
 20
494.2076518511554
 30
0.0
 10
707.4906082355262
 20
494.6266248631847
 30
0.0
 10
711.8329098626906
 20
495.2981223713503
 30
0.0
 10
716.0066475315253
 20
495.9435546469557
 30
0.0
 10
718.5767670152377
 20
496.3410003800232
 30
0.0
 10
719.8736159272751
 20
496.5415463350998
 30
0.0
  0
ARC
  5
D0
330
1F
100
AcDbEntity
  8
0
  6
Continuous
 62
     7
370
    25
100
AcDbCircle
 10
739.3375517172
 20
499.5205137261
 30
0.0
 40
16.42261912900003
100
AcDbArc
 50
307.2549368278
 51
127.2549368278
  0
ARC
  5
D1
330
1F
100
AcDbEntity
  8
0
  6
Continuous
 62
     7
370
    25
100
AcDbCircle
 10
739.3375517172
 20
499.5205137261
 30
0.0
 40
16.42261912900003
100
AcDbArc
 50
127.2549368278
 51
307.2549368278
  0
SPLINE
  5
D2
330
1F
100
AcDbEntity
  8
0
  6
Continuous
 62
     7
370
    25
100
AcDbSpline
210
0.0
220
0.0
230
1.0
 70
     8
 71
     3
 72
    12
 73
     8
 74
     0
 42
0.000000001
 43
0.00000001
 40
0.0
 40
0.0
 40
0.0
 40
0.0
 40
0.3203287155913394
 40
0.5619233984076273
 40
0.7389259170595618
 40
0.8801298858369019
 40
1.0
 40
1.0
 40
1.0
 40
1.0
 10
736.7321638532242
 20
463.3043973274814
 30
0.0
 10
736.7380077181294
 20
463.1981882548081
 30
0.0
 10
736.7482590763988
 20
463.011875382582
 30
0.0
 10
736.8934299055669
 20
462.7856330590664
 30
0.0
 10
737.0656572210187
 20
462.6468533690287
 30
0.0
 10
737.2422392137619
 20
462.5708441640148
 30
0.0
 10
737.3601748778591
 20
462.5599468440764
 30
0.0
 10
737.4143241115173
 20
462.5549434252368
 30
0.0
  0
LINE
  5
D3
330
1F
100
AcDbEntity
  8
0
  6
Continuous
 62
     7
370
    25
100
AcDbLine
 10
739.5606277652
 20
462.505618719
 30
0.0
 11
737.4143241115
 21
462.5549434252
 31
0.0
  0
SPLINE
  5
D4
330
1F
100
AcDbEntity
  8
0
  6
Continuous
 62
     7
370
    25
100
AcDbSpline
210
0.0
220
0.0
230
1.0
 70
     8
 71
     3
 72
    12
 73
     8
 74
     0
 42
0.000000001
 43
0.00000001
 40
0.0
 40
0.0
 40
0.0
 40
0.0
 40
0.1369200508534734
 40
0.2732874242956252
 40
0.4609299516074428
 40
0.7173045571470598
 40
1.0
 40
1.0
 40
1.0
 40
1.0
 10
739.5606277652344
 20
462.5056187190401
 30
0.0
 10
739.6227852833326
 20
462.5090969888763
 30
0.0
 10
739.7468494208769
 20
462.516039488522
 30
0.0
 10
739.9322717633097
 20
462.5919393243468
 30
0.0
 10
740.1114471536657
 20
462.7317347303087
 30
0.0
 10
740.2525791069882
 20
462.9519074065333
 30
0.0
 10
740.2682624484607
 20
463.1297058625414
 30
0.0
 10
740.2764869995674
 20
463.2229457177507
 30
0.0
  0
SPLINE
  5
D5
330
1F
100
AcDbEntity
  8
0
  6
Continuous
 62
     7
370
    25
100
AcDbSpline
210
0.0
220
0.0
230
1.0
 70
     8
 71
     3
 72
    11
 73
     7
 74
     0
 42
0.000000001
 43
0.00000001
 40
0.0
 40
0.0
 40
0.0
 40
0.0
 40
0.2603296767220828
 40
0.5282090351532481
 40
0.7614184827614152
 40
1.0
 40
1.0
 40
1.0
 40
1.0
 10
739.8607297010979
 20
479.8368827007996
 30
0.0
 10
739.9006751781476
 20
478.2405877772367
 30
0.0
 10
739.9817245696611
 20
475.0017046348611
 30
0.0
 10
740.0922718225581
 20
470.5844953807726
 30
0.0
 10
740.1925940788773
 20
466.5755702039841
 30
0.0
 10
740.2483112174128
 20
464.3489384283759
 30
0.0
 10
740.2764869995674
 20
463.2229457177507
 30
0.0
  0
SPLINE
  5
D6
330
1F
100
AcDbEntity
  8
0
  6
Continuous
 62
     7
370
    25
100
AcDbSpline
210
0.0
220
0.0
230
1.0
 70
     8
 71
     3
 72
    12
 73
     8
 74
     0
 42
0.000000001
 43
0.00000001
 40
0.0
 40
0.0
 40
0.0
 40
0.0
 40
0.2228388363502062
 40
0.4114684345370399
 40
0.6322888864758905
 40
0.853136180458471
 40
1.0
 40
1.0
 40
1.0
 40
1.0
 10
739.8607297010979
 20
479.8368827007996
 30
0.0
 10
739.8510381162646
 20
479.9156355389903
 30
0.0
 10
739.8331427560803
 20
480.0610514259893
 30
0.0
 10
739.7194276036562
 20
480.2591037243595
 30
0.0
 10
739.5545813105609
 20
480.4137684744086
 30
0.0
 10
739.359535262801
 20
480.5028274008274
 30
0.0
 10
739.2291217717938
 20
480.5145170651515
 30
0.0
 10
739.1770346232017
 20
480.519185917108
 30
0.0
  0
LINE
  5
D7
330
1F
100
AcDbEntity
  8
0
  6
Continuous
 62
     7
370
    25
100
AcDbLine
 10
738.6250136562
 20
480.5318719276
 30
0.0
 11
739.1770346232
 21
480.5191859171
 31
0.0
  0
SPLINE
  5
D8
330
1F
100
AcDbEntity
  8
0
  6
Continuous
 62
     7
370
    25
100
AcDbSpline
210
0.0
220
0.0
230
1.0
 70
     8
 71
     3
 72
    12
 73
     8
 74
     0
 42
0.000000001
 43
0.00000001
 40
0.0
 40
0.0
 40
0.0
 40
0.0
 40
0.2201332145646967
 40
0.4402521360446113
 40
0.6607431363137891
 40
0.8821590839792114
 40
1.0
 40
1.0
 40
1.0
 40
1.0
 10
738.625013656195
 20
480.5318719275581
 30
0.0
 10
738.5464178086181
 20
480.5259862317172
 30
0.0
 10
738.3892312166336
 20
480.5142152221891
 30
0.0
 10
738.1774220703003
 20
480.3991968434643
 30
0.0
 10
738.0150222210522
 20
480.2264139982894
 30
0.0
 10
737.9307533104577
 20
480.0419132631319
 30
0.0
 10
737.9158673369072
 20
479.9230008042636
 30
0.0
 10
737.9106966920456
 20
479.8816965461062
 30
0.0
  0
SPLINE
  5
D9
330
1F
100
AcDbEntity
  8
0
  6
Continuous
 62
     7
370
    25
100
AcDbSpline
210
0.0
220
0.0
230
1.0
 70
     8
 71
     3
 72
    11
 73
     7
 74
     0
 42
0.000000001
 43
0.00000001
 40
0.0
 40
0.0
 40
0.0
 40
0.0
 40
0.283227091711881
 40
0.576269078968674
 40
0.7861908618111058
 40
1.0
 40
1.0
 40
1.0
 40
1.0
 10
736.7321638532242
 20
463.3043973274814
 30
0.0
 10
736.8277163929648
 20
464.6484219128679
 30
0.0
 10
737.0221327312349
 20
467.3830466454476
 30
0.0
 10
737.3337200133923
 20
471.7659009094223
 30
0.0
 10
737.6332160236332
 20
475.9786159313615
 30
0.0
 10
737.817639163002
 20
478.5727367553426
 30
0.0
 10
737.9106966920456
 20
479.8816965461062
 30
0.0
  0
SPLINE
  5
DA
330
1F
100
AcDbEntity
  8
0
  6
Continuous
 62
     7
370
    25
100
AcDbSpline
210
0.0
220
0.0
230
1.0
 70
     8
 71
     3
 72
    12
 73
     8
 74
     0
 42
0.000000001
 43
0.00000001
 40
0.0
 40
0.0
 40
0.0
 40
0.0
 40
0.3203306765809718
 40
0.5619265444449472
 40
0.7389292924546844
 40
0.880131714270006
 40
1.0
 40
1.0
 40
1.0
 40
1.0
 10
721.2765975065788
 20
468.0213561781036
 30
0.0
 10
721.2357772214635
 20
467.92312921887
 30
0.0
 10
721.1641699623557
 20
467.7508187290891
 30
0.0
 10
721.1968119073973
 20
467.4839945388826
 30
0.0
 10
721.2917639035072
 20
467.2842305580868
 30
0.0
 10
721.4178784276922
 20
467.1391342652697
 30
0.0
 10
721.5194043252498
 20
467.0781455975357
 30
0.0
 10
721.5660190351566
 20
467.0501431949722
 30
0.0
  0
LINE
  5
DB
330
1F
100
AcDbEntity
  8
0
  6
Continuous
 62
     7
370
    25
100
AcDbLine
 10
723.4783744581
 20
466.0744561382
 30
0.0
 11
721.5660190352
 21
467.050143195
 31
0.0
  0
SPLINE
  5
DC
330
1F
100
AcDbEntity
  8
0
  6
Continuous
 62
     7
370
    25
100
AcDbSpline
210
0.0
220
0.0
230
1.0
 70
     8
 71
     3
 72
    12
 73
     8
 74
     0
 42
0.000000001
 43
0.00000001
 40
0.0
 40
0.0
 40
0.0
 40
0.0
 40
0.1369188866910918
 40
0.2732889507149762
 40
0.4609279645829581
 40
0.7173044630931324
 40
1.0
 40
1.0
 40
1.0
 40
1.0
 10
723.4783744581302
 20
466.0744561381923
 30
0.0
 10
723.535885395378
 20
466.0506224413147
 30
0.0
 10
723.650676744292
 20
466.0030505820281
 30
0.0
 10
723.8506682972535
 20
465.9909753187596
 30
0.0
 10
724.0727502800091
 20
466.0391943478719
 30
0.0
 10
724.2954422454219
 20
466.1763184605732
 30
0.0
 10
724.3867166374852
 20
466.3297058233769
 30
0.0
 10
724.4345819719395
 20
466.4101439096319
 30
0.0
  0
SPLINE
  5
DD
330
1F
100
AcDbEntity
  8
0
  6
Continuous
 62
     7
370
    25
100
AcDbSpline
210
0.0
220
0.0
230
1.0
 70
     8
 71
     3
 72
    11
 73
     7
 74
     0
 42
0.000000001
 43
0.00000001
 40
0.0
 40
0.0
 40
0.0
 40
0.0
 40
0.2603296518736796
 40
0.528209016781679
 40
0.7614184249023108
 40
1.0
 40
1.0
 40
1.0
 40
1.0
 10
731.2685115404686
 20
481.5591756753909
 30
0.0
 10
730.6118962529945
 20
480.1036314853918
 30
0.0
 10
729.2796234484781
 20
477.1503314677098
 30
0.0
 10
727.462657598894
 20
473.1226035857362
 30
0.0
 10
725.8136429453749
 20
469.4671566387001
 30
0.0
 10
724.897745329457
 20
467.4368543356705
 30
0.0
 10
724.4345819719395
 20
466.4101439096319
 30
0.0
  0
SPLINE
  5
DE
330
1F
100
AcDbEntity
  8
0
  6
Continuous
 62
     7
370
    25
100
AcDbSpline
210
0.0
220
0.0
230
1.0
 70
     8
 71
     3
 72
    13
 73
     9
 74
     0
 42
0.000000001
 43
0.00000001
 40
0.0
 40
0.0
 40
0.0
 40
0.0
 40
0.2228775648130835
 40
0.4457878187753095
 40
0.6678640838292023
 40
0.7058046042089334
 40
0.9258775720571745
 40
1.0
 40
1.0
 40
1.0
 40
1.0
 10
731.2685115404686
 20
481.5591756753909
 30
0.0
 10
731.2938846926014
 20
481.6343587298226
 30
0.0
 10
731.3446347183126
 20
481.7847358656823
 30
0.0
 10
731.3203447895385
 20
482.0262157263389
 30
0.0
 10
731.2494247770677
 20
482.185197056223
 30
0.0
 10
731.1503164240589
 20
482.3234072385792
 30
0.0
 10
731.0628742158609
 20
482.4071944662501
 30
0.0
 10
730.9715662645597
 20
482.457804627213
 30
0.0
 10
730.9485612578949
 20
482.4705558397161
 30
0.0
  0
LINE
  5
DF
330
1F
100
AcDbEntity
  8
0
  6
Continuous
 62
     7
370
    25
100
AcDbLine
 10
730.4567186304
 20
482.7214955852
 30
0.0
 11
730.9485612579
 21
482.4705558397
 31
0.0
  0
SPLINE
  5
E0
330
1F
100
AcDbEntity
  8
0
  6
Continuous
 62
     7
370
    25
100
AcDbSpline
210
0.0
220
0.0
230
1.0
 70
     8
 71
     3
 72
    12
 73
     8
 74
     0
 42
0.000000001
 43
0.00000001
 40
0.0
 40
0.0
 40
0.0
 40
0.0
 40
0.2201355544034243
 40
0.4402536848670703
 40
0.6607426177257398
 40
0.8821610656413887
 40
1.0
 40
1.0
 40
1.0
 40
1.0
 10
730.4567186303696
 20
482.7214955851721
 30
0.0
 10
730.3833513911343
 20
482.7502943721317
 30
0.0
 10
730.2366227197509
 20
482.8078896665994
 30
0.0
 10
729.995882856886
 20
482.7961660275035
 30
0.0
 10
729.7745997725891
 20
482.7109518770351
 30
0.0
 10
729.6186169809971
 20
482.5812922646367
 30
0.0
 10
729.5536143896693
 20
482.4806111304617
 30
0.0
 10
729.531036145266
 20
482.4456401668774
 30
0.0
  0
SPLINE
  5
E1
330
1F
100
AcDbEntity
  8
0
  6
Continuous
 62
     7
370
    25
100
AcDbSpline
210
0.0
220
0.0
230
1.0
 70
     8
 71
     3
 72
    11
 73
     7
 74
     0
 42
0.000000001
 43
0.00000001
 40
0.0
 40
0.0
 40
0.0
 40
0.0
 40
0.2832270506890571
 40
0.5762690079535286
 40
0.7861908164273452
 40
1.0
 40
1.0
 40
1.0
 40
1.0
 10
721.2765975065788
 20
468.0213561781036
 30
0.0
 10
721.9458361201822
 20
469.1908221544729
 30
0.0
 10
723.3075050391898
 20
471.5702806009671
 30
0.0
 10
725.4898846832078
 20
475.383902276799
 30
0.0
 10
727.5875509321066
 20
479.0494802375728
 30
0.0
 10
728.8792576337273
 20
481.3066842084366
 30
0.0
 10
729.531036145266
 20
482.4456401668774
 30
0.0
  0
SPLINE
  5
E2
330
1F
100
AcDbEntity
  8
0
  6
Continuous
 62
     7
370
    25
100
AcDbSpline
210
0.0
220
0.0
230
1.0
 70
     8
 71
     3
 72
    12
 73
     8
 74
     0
 42
0.000000001
 43
0.00000001
 40
0.0
 40
0.0
 40
0.0
 40
0.0
 40
0.320328293937868
 40
0.5619231578246049
 40
0.738926744578831
 40
0.8801295858525098
 40
1.0
 40
1.0
 40
1.0
 40
1.0
 10
752.7037648625931
 20
465.7604868091928
 30
0.0
 10
752.7551099973169
 20
465.6673296543291
 30
0.0
 10
752.8451801559293
 20
465.5039124238637
 30
0.0
 10
753.0741410452279
 20
465.3630669450536
 30
0.0
 10
753.2895270810952
 20
465.3127553324102
 30
0.0
 10
753.481600580041
 20
465.3208912032741
 30
0.0
 10
753.5925856391547
 20
465.3622407517501
 30
0.0
 10
753.643543846186
 20
465.3812261797773
 30
0.0
  0
LINE
  5
E3
330
1F
100
AcDbEntity
  8
0
  6
Continuous
 62
     7
370
    25
100
AcDbLine
 10
755.5986954041
 20
466.268033398
 30
0.0
 11
753.6435438462
 21
465.3812261798
 31
0.0
  0
SPLINE
  5
E4
330
1F
100
AcDbEntity
  8
0
  6
Continuous
 62
     7
370
    25
100
AcDbSpline
210
0.0
220
0.0
230
1.0
 70
     8
 71
     3
 72
    12
 73
     8
 74
     0
 42
0.000000001
 43
0.00000001
 40
0.0
 40
0.0
 40
0.0
 40
0.0
 40
0.1369223144105766
 40
0.2732894930705511
 40
0.4609293560036835
 40
0.7173051882730377
 40
1.0
 40
1.0
 40
1.0
 40
1.0
 10
755.5986954041084
 20
466.2680333979713
 30
0.0
 10
755.6531896034378
 20
466.2981365162561
 30
0.0
 10
755.7619570616429
 20
466.3582207032004
 30
0.0
 10
755.8960807962621
 20
466.5070605374005
 30
0.0
 10
755.9968605515011
 20
466.7107479737196
 30
0.0
 10
756.028489728898
 20
466.9703547170173
 30
0.0
 10
755.9654749379416
 20
467.1373501745089
 30
0.0
 10
755.9324292607864
 20
467.2249245025503
 30
0.0
  0
SPLINE
  5
E5
330
1F
100
AcDbEntity
  8
0
  6
Continuous
 62
     7
370
    25
100
AcDbSpline
210
0.0
220
0.0
230
1.0
 70
     8
 71
     3
 72
    11
 73
     7
 74
     0
 42
0.000000001
 43
0.00000001
 40
0.0
 40
0.0
 40
0.0
 40
0.0
 40
0.2603296646306846
 40
0.5282089968535403
 40
0.761418398517511
 40
1.0
 40
1.0
 40
1.0
 40
1.0
 10
748.3493251867851
 20
482.0131740100967
 30
0.0
 10
749.0779224747117
 20
480.5922943398359
 30
0.0
 10
750.5562466722707
 20
477.7093289031355
 30
0.0
 10
752.5723933842072
 20
473.7775215487272
 30
0.0
 10
754.4021885288673
 20
470.209133708771
 30
0.0
 10
755.4184915299448
 20
468.2271836084611
 30
0.0
 10
755.9324292607864
 20
467.2249245025503
 30
0.0
  0
SPLINE
  5
E6
330
1F
100
AcDbEntity
  8
0
  6
Continuous
 62
     7
370
    25
100
AcDbSpline
210
0.0
220
0.0
230
1.0
 70
     8
 71
     3
 72
    12
 73
     8
 74
     0
 42
0.000000001
 43
0.00000001
 40
0.0
 40
0.0
 40
0.0
 40
0.0
 40
0.1165830526393312
 40
0.3388961852933536
 40
0.5612375922279356
 40
0.7827223051289361
 40
1.0
 40
1.0
 40
1.0
 40
1.0
 10
748.3493251867851
 20
482.0131740100967
 30
0.0
 10
748.3286217666439
 20
482.0487704487432
 30
0.0
 10
748.2684388331086
 20
482.1522460139667
 30
0.0
 10
748.1183388586977
 20
482.2895066074651
 30
0.0
 10
747.899703389561
 20
482.3852319457238
 30
0.0
 10
747.659502427092
 20
482.4071974178614
 30
0.0
 10
747.5108922429696
 20
482.3564118749244
 30
0.0
 10
747.4372996159157
 20
482.3312625788437
 30
0.0
  0
LINE
  5
E7
330
1F
100
AcDbEntity
  8
0
  6
Continuous
 62
     7
370
    25
100
AcDbLine
 10
746.9344450303
 20
482.1031816803
 30
0.0
 11
747.4372996159
 21
482.3312625788
 31
0.0
  0
SPLINE
  5
E8
330
1F
100
AcDbEntity
  8
0
  6
Continuous
 62
     7
370
    25
100
AcDbSpline
210
0.0
220
0.0
230
1.0
 70
     8
 71
     3
 72
    12
 73
     8
 74
     0
 42
0.000000001
 43
0.00000001
 40
0.0
 40
0.0
 40
0.0
 40
0.0
 40
0.2201338855559331
 40
0.4402549109820069
 40
0.6607443395224019
 40
0.8821597698341623
 40
1.0
 40
1.0
 40
1.0
 40
1.0
 10
746.9344450302681
 20
482.1031816803204
 30
0.0
 10
746.8661855029195
 20
482.0637772600749
 30
0.0
 10
746.7296704359153
 20
481.9849707215736
 30
0.0
 10
746.5887391228487
 20
481.7894415468177
 30
0.0
 10
746.5173855733639
 20
481.563306579323
 30
0.0
 10
746.5215142175853
 20
481.3605128027367
 30
0.0
 10
746.5597010428492
 20
481.246918582612
 30
0.0
 10
746.5729652114471
 20
481.2074617050873
 30
0.0
  0
SPLINE
  5
E9
330
1F
100
AcDbEntity
  8
0
  6
Continuous
 62
     7
370
    25
100
AcDbSpline
210
0.0
220
0.0
230
1.0
 70
     8
 71
     3
 72
    11
 73
     7
 74
     0
 42
0.000000001
 43
0.00000001
 40
0.0
 40
0.0
 40
0.0
 40
0.0
 40
0.2832271329836528
 40
0.5762690290488302
 40
0.7861908713981844
 40
0.9999999999999999
 40
0.9999999999999999
 40
0.9999999999999999
 40
0.9999999999999999
 10
752.7037648625931
 20
465.7604868091928
 30
0.0
 10
752.2067005767092
 20
467.0128685638222
 30
0.0
 10
751.1953470726021
 20
469.5610312703251
 30
0.0
 10
749.5744426693587
 20
473.6450435683128
 30
0.0
 10
748.0164421878764
 20
477.5705114740599
 30
0.0
 10
747.0570579841268
 20
479.9877530778036
 30
0.0
 10
746.5729652114471
 20
481.2074617050873
 30
0.0
  0
SPLINE
  5
EA
330
1F
100
AcDbEntity
  8
0
  6
Continuous
 62
     7
370
    25
100
AcDbSpline
210
0.0
220
0.0
230
1.0
 70
     8
 71
     3
 72
    12
 73
     8
 74
     0
 42
0.000000001
 43
0.00000001
 40
0.0
 40
0.0
 40
0.0
 40
0.0
 40
0.3203283410142364
 40
0.5619234654733519
 40
0.7389315149694842
 40
0.880132083191072
 40
1.0
 40
1.0
 40
1.0
 40
1.0
 10
766.0280181236824
 20
474.903162246226
 30
0.0
 10
766.1146981742446
 20
474.8415089101052
 30
0.0
 10
766.2667532632357
 20
474.733355956229
 30
0.0
 10
766.5341508685393
 20
474.7058017774991
 30
0.0
 10
766.7500400563407
 20
474.7539246712882
 30
0.0
 10
766.9195622632683
 20
474.844590157584
 30
0.0
 10
767.0016125612065
 20
474.9299993537555
 30
0.0
 10
767.0392854281029
 20
474.9692144371854
 30
0.0
  0
LINE
  5
EB
330
1F
100
AcDbEntity
  8
0
  6
Continuous
 62
     7
370
    25
100
AcDbLine
 10
768.4160484143
 20
476.6165098675
 30
0.0
 11
767.0392854281
 21
474.9692144372
 31
0.0
  0
SPLINE
  5
EC
330
1F
100
AcDbEntity
  8
0
  6
Continuous
 62
     7
370
    25
100
AcDbSpline
210
0.0
220
0.0
230
1.0
 70
     8
 71
     3
 72
    13
 73
     9
 74
     0
 42
0.000000001
 43
0.00000001
 40
0.0
 40
0.0
 40
0.0
 40
0.0
 40
0.1368250746449451
 40
0.2731014921618298
 40
0.4606116394318798
 40
0.7168106920278904
 40
0.807651000128695
 40
1.0
 40
1.0
 40
1.0
 40
1.0
 10
768.416048414286
 20
476.616509867488
 30
0.0
 10
768.4520893613767
 20
476.6672837541296
 30
0.0
 10
768.5240267343685
 20
476.7686279283654
 30
0.0
 10
768.5801736982082
 20
476.9607866702407
 30
0.0
 10
768.5833445093081
 20
477.1888130075518
 30
0.0
 10
768.518279542162
 20
477.3678849795413
 30
0.0
 10
768.4193560311571
 20
477.519528651725
 30
0.0
 10
768.349199736819
 20
477.5814097805894
 30
0.0
 10
768.3015478916725
 20
477.6234409340011
 30
0.0
  0
SPLINE
  5
ED
330
1F
100
AcDbEntity
  8
0
  6
Continuous
 62
     7
370
    25
100
AcDbSpline
210
0.0
220
0.0
230
1.0
 70
     8
 71
     3
 72
    11
 73
     7
 74
     0
 42
0.000000001
 43
0.00000001
 40
0.0
 40
0.0
 40
0.0
 40
0.0
 40
0.2603295761764181
 40
0.5282090528112158
 40
0.761418446201716
 40
0.9999999999999999
 40
0.9999999999999999
 40
0.9999999999999999
 40
0.9999999999999999
 10
755.0530297823509
 20
487.6570084864559
 30
0.0
 10
756.3259686177425
 20
486.692966357229
 30
0.0
 10
758.9087631907005
 20
484.7369236077721
 30
0.0
 10
762.4311988783028
 20
482.0692643009425
 30
0.0
 10
765.6280504070842
 20
479.6481733802415
 30
0.0
 10
767.4036426615818
 20
478.3034557324042
 30
0.0
 10
768.3015478916725
 20
477.6234409340011
 30
0.0
  0
SPLINE
  5
EE
330
1F
100
AcDbEntity
  8
0
  6
Continuous
 62
     7
370
    25
100
AcDbSpline
210
0.0
220
0.0
230
1.0
 70
     8
 71
     3
 72
    12
 73
     8
 74
     0
 42
0.000000001
 43
0.00000001
 40
0.0
 40
0.0
 40
0.0
 40
0.0
 40
0.2229019850122564
 40
0.4458313952652789
 40
0.6679305756169502
 40
0.8889137163358066
 40
1.0
 40
1.0
 40
1.0
 40
1.0
 10
755.0530297823509
 20
487.6570084864559
 30
0.0
 10
754.9853997325597
 20
487.698468679047
 30
0.0
 10
754.850131311964
 20
487.7813941653761
 30
0.0
 10
754.6089599871515
 20
487.8115381080931
 30
0.0
 10
754.3747590077287
 20
487.7646453549723
 30
0.0
 10
754.2003088097861
 20
487.6634029003761
 30
0.0
 10
754.120128197279
 20
487.5768388566801
 30
0.0
 10
754.0933055945
 20
487.547880821983
 30
0.0
  0
LINE
  5
EF
330
1F
100
AcDbEntity
  8
0
  6
Continuous
 62
     7
370
    25
100
AcDbLine
 10
753.7392093011
 20
487.1242073689
 30
0.0
 11
754.0933055945
 21
487.547880822
 31
0.0
  0
SPLINE
  5
F0
330
1F
100
AcDbEntity
  8
0
  6
Continuous
 62
     7
370
    25
100
AcDbSpline
210
0.0
220
0.0
230
1.0
 70
     8
 71
     3
 72
    12
 73
     8
 74
     0
 42
0.000000001
 43
0.00000001
 40
0.0
 40
0.0
 40
0.0
 40
0.0
 40
0.2201340006342416
 40
0.4402550500070569
 40
0.6607450787093908
 40
0.8821592529434523
 40
1.0
 40
1.0
 40
1.0
 40
1.0
 10
753.7392093010506
 20
487.1242073689407
 30
0.0
 10
753.6948069207295
 20
487.0590887570161
 30
0.0
 10
753.6060047724364
 20
486.9288553643252
 30
0.0
 10
753.5638680355778
 20
486.6915410429623
 30
0.0
 10
753.5977100014236
 20
486.4568462865272
 30
0.0
 10
753.6894044676626
 20
486.2759215108243
 30
0.0
 10
753.7730962357368
 20
486.1901458775341
 30
0.0
 10
753.8021667070946
 20
486.1603515722143
 30
0.0
  0
SPLINE
  5
F1
330
1F
100
AcDbEntity
  8
0
  6
Continuous
 62
     7
370
    25
100
AcDbSpline
210
0.0
220
0.0
230
1.0
 70
     8
 71
     3
 72
    11
 73
     7
 74
     0
 42
0.000000001
 43
0.00000001
 40
0.0
 40
0.0
 40
0.0
 40
0.0
 40
0.2832269452126321
 40
0.576268995392111
 40
0.7861907229379925
 40
1.0
 40
1.0
 40
1.0
 40
1.0
 10
766.0280181236824
 20
474.903162246226
 30
0.0
 10
765.0367940950508
 20
475.8158526378864
 30
0.0
 10
763.0199956059128
 20
477.6728623045032
 30
0.0
 10
759.7876141020948
 20
480.6491366224866
 30
0.0
 10
756.6807135953948
 20
483.5098774473293
 30
0.0
 10
754.7675332052937
 20
485.2714729039851
 30
0.0
 10
753.8021667070946
 20
486.1603515722143
 30
0.0
  0
SPLINE
  5
F2
330
1F
100
AcDbEntity
  8
0
  6
Continuous
 62
     7
370
    25
100
AcDbSpline
210
0.0
220
0.0
230
1.0
 70
     8
 71
     3
 72
    12
 73
     8
 74
     0
 42
0.000000001
 43
0.00000001
 40
0.0
 40
0.0
 40
0.0
 40
0.0
 40
0.3203325656999226
 40
0.5619254811108477
 40
0.738928859478955
 40
0.8801314085715729
 40
0.9999999999999999
 40
0.9999999999999999
 40
0.9999999999999999
 40
0.9999999999999999
 10
774.0658981867393
 20
488.9216062413814
 30
0.0
 10
774.1707473989542
 20
488.9036680768338
 30
0.0
 10
774.3546732632797
 20
488.8722010552975
 30
0.0
 10
774.607542982906
 20
488.963393201866
 30
0.0
 10
774.7811655495751
 20
489.1004218957901
 30
0.0
 10
774.8945636608652
 20
489.2556595611059
 30
0.0
 10
774.9314320478234
 20
489.3682115573016
 30
0.0
 10
774.9483598538002
 20
489.4198888480948
 30
0.0
  0
LINE
  5
F3
330
1F
100
AcDbEntity
  8
0
  6
Continuous
 62
     7
370
    25
100
AcDbLine
 10
775.4740430184
 20
491.5014055126
 30
0.0
 11
774.9483598538
 21
489.4198888481
 31
0.0
  0
SPLINE
  5
F4
330
1F
100
AcDbEntity
  8
0
  6
Continuous
 62
     7
370
    25
100
AcDbSpline
210
0.0
220
0.0
230
1.0
 70
     8
 71
     3
 72
    13
 73
     9
 74
     0
 42
0.000000001
 43
0.00000001
 40
0.0
 40
0.0
 40
0.0
 40
0.0
 40
0.1368522334973254
 40
0.2731541621685847
 40
0.4607005540355006
 40
0.5051879289003144
 40
0.7677993698519683
 40
1.0
 40
1.0
 40
1.0
 40
1.0
 10
775.4740430183967
 20
491.5014055125701
 30
0.0
 10
775.4844859295468
 20
491.5627942258423
 30
0.0
 10
775.5053297592232
 20
491.6853247985042
 30
0.0
 10
775.4725564343202
 20
491.8827296944611
 30
0.0
 10
775.4114916801898
 20
492.0143758950528
 30
0.0
 10
775.3066032889999
 20
492.1621099424175
 30
0.0
 10
775.1638439993887
 20
492.2895849025443
 30
0.0
 10
775.0074065771468
 20
492.3367895303699
 30
0.0
 10
774.9339951344093
 20
492.3589412622439
 30
0.0
  0
SPLINE
  5
F5
330
1F
100
AcDbEntity
  8
0
  6
Continuous
 62
     7
370
    25
100
AcDbSpline
210
0.0
220
0.0
230
1.0
 70
     8
 71
     3
 72
    11
 73
     7
 74
     0
 42
0.000000001
 43
0.00000001
 40
0.0
 40
0.0
 40
0.0
 40
0.0
 40
0.2603295760457439
 40
0.5282090810564983
 40
0.7614186832015036
 40
1.0
 40
1.0
 40
1.0
 40
1.0
 10
758.6440904207786
 20
495.6505556159007
 30
0.0
 10
760.2092511637948
 20
495.3342919009096
 30
0.0
 10
763.3849645434723
 20
494.6925923721647
 30
0.0
 10
767.716023580132
 20
493.8174383989364
 30
0.0
 10
771.6467630335994
 20
493.0231762040003
 30
0.0
 10
773.8299652698211
 20
492.5820271869103
 30
0.0
 10
774.9339951344093
 20
492.3589412622439
 30
0.0
  0
SPLINE
  5
F6
330
1F
100
AcDbEntity
  8
0
  6
Continuous
 62
     7
370
    25
100
AcDbSpline
210
0.0
220
0.0
230
1.0
 70
     8
 71
     3
 72
    12
 73
     8
 74
     0
 42
0.000000001
 43
0.00000001
 40
0.0
 40
0.0
 40
0.0
 40
0.0
 40
0.222895575730233
 40
0.4458281811843715
 40
0.667931534697221
 40
0.8889136642338957
 40
1.0
 40
1.0
 40
1.0
 40
1.0
 10
758.6440904207786
 20
495.6505556159007
 30
0.0
 10
758.5651710446556
 20
495.6585666694826
 30
0.0
 10
758.4073191815044
 20
495.6745901075258
 30
0.0
 10
758.1769525745882
 20
495.5971058915443
 30
0.0
 10
757.9862849463962
 20
495.4532440679881
 30
0.0
 10
757.8730389460676
 20
495.2863339650472
 30
0.0
 10
757.8383565316662
 20
495.1735538789915
 30
0.0
 10
757.8267542787155
 20
495.1358257361042
 30
0.0
  0
LINE
  5
F7
330
1F
100
AcDbEntity
  8
0
  6
Continuous
 62
     7
370
    25
100
AcDbLine
 10
757.6915560432
 20
494.6004735805
 30
0.0
 11
757.8267542787
 21
495.1358257361
 31
0.0
  0
SPLINE
  5
F8
330
1F
100
AcDbEntity
  8
0
  6
Continuous
 62
     7
370
    25
100
AcDbSpline
210
0.0
220
0.0
230
1.0
 70
     8
 71
     3
 72
    12
 73
     8
 74
     0
 42
0.000000001
 43
0.00000001
 40
0.0
 40
0.0
 40
0.0
 40
0.0
 40
0.2201337564308264
 40
0.4402559384535998
 40
0.6607435997832604
 40
0.8821586758807017
 40
1.0
 40
1.0
 40
1.0
 40
1.0
 10
757.6915560432037
 20
494.6004735805379
 30
0.0
 10
757.679803474902
 20
494.5225381463879
 30
0.0
 10
757.6562989562366
 20
494.3666713758533
 30
0.0
 10
757.7213068520443
 20
494.1345782112276
 30
0.0
 10
757.8536188825977
 20
493.9378023859347
 30
0.0
 10
758.0147388735758
 20
493.8145857824632
 30
0.0
 10
758.1273594435517
 20
493.7736162829406
 30
0.0
 10
758.1664784021934
 20
493.7593854531931
 30
0.0
  0
SPLINE
  5
F9
330
1F
100
AcDbEntity
  8
0
  6
Continuous
 62
     7
370
    25
100
AcDbSpline
210
0.0
220
0.0
230
1.0
 70
     8
 71
     3
 72
    11
 73
     7
 74
     0
 42
0.000000001
 43
0.00000001
 40
0.0
 40
0.0
 40
0.0
 40
0.0
 40
0.283226996004466
 40
0.5762690546418379
 40
0.7861909359693108
 40
0.9999999999999999
 40
0.9999999999999999
 40
0.9999999999999999
 40
0.9999999999999999
 10
774.0658981867393
 20
488.9216062413814
 30
0.0
 10
772.7768343473947
 20
489.3138350787705
 30
0.0
 10
770.1540349301373
 20
490.1118852099873
 30
0.0
 10
765.9504035291113
 20
491.3909405929605
 30
0.0
 10
761.909953505177
 20
492.6203423387802
 30
0.0
 10
759.4219116239583
 20
493.3773894394579
 30
0.0
 10
758.1664784021934
 20
493.7593854531931
 30
0.0
  0
SPLINE
  5
FA
330
1F
100
AcDbEntity
  8
0
  6
Continuous
 62
     7
370
    25
100
AcDbSpline
210
0.0
220
0.0
230
1.0
 70
     8
 71
     3
 72
    12
 73
     8
 74
     0
 42
0.000000001
 43
0.00000001
 40
0.0
 40
0.0
 40
0.0
 40
0.0
 40
0.3203294147586453
 40
0.5619235209138664
 40
0.7389289904809332
 40
0.8801305779637251
 40
1.0
 40
1.0
 40
1.0
 40
1.0
 10
775.2254096932968
 20
505.0392939277278
 30
0.0
 10
775.3276563039245
 20
505.068623660892
 30
0.0
 10
775.5070178386395
 20
505.1200740309415
 30
0.0
 10
775.6952747756442
 20
505.311954832944
 30
0.0
 10
775.7922548173619
 20
505.5107433337814
 30
0.0
 10
775.8270693378272
 20
505.6998097760115
 30
0.0
 10
775.8114476982873
 20
505.8172114715799
 30
0.0
 10
775.8042751021942
 20
505.8711158611166
 30
0.0
  0
LINE
  5
FB
330
1F
100
AcDbEntity
  8
0
  6
Continuous
 62
     7
370
    25
100
AcDbLine
 10
775.3747714825
 20
507.9745842643
 30
0.0
 11
775.8042751022
 21
505.8711158611
 31
0.0
  0
SPLINE
  5
FC
330
1F
100
AcDbEntity
  8
0
  6
Continuous
 62
     7
370
    25
100
AcDbSpline
210
0.0
220
0.0
230
1.0
 70
     8
 71
     3
 72
    12
 73
     8
 74
     0
 42
0.000000001
 43
0.00000001
 40
0.0
 40
0.0
 40
0.0
 40
0.0
 40
0.1335506852048878
 40
0.2374494599176157
 40
0.4314225492028773
 40
0.6784644511794764
 40
1.0
 40
1.0
 40
1.0
 40
1.0
 10
775.3747714825233
 20
507.9745842643367
 30
0.0
 10
775.3581653549209
 20
508.0329535290705
 30
0.0
 10
775.3286401149379
 20
508.1367324828477
 30
0.0
 10
775.2270893912912
 20
508.2947957751477
 30
0.0
 10
775.065646488748
 20
508.4417896964285
 30
0.0
 10
774.8094754179403
 20
508.5490121200276
 30
0.0
 10
774.6220947418772
 20
508.5259316231858
 30
0.0
 10
774.5161293216308
 20
508.5128793992387
 30
0.0
  0
SPLINE
  5
FD
330
1F
100
AcDbEntity
  8
0
  6
Continuous
 62
     7
370
    25
100
AcDbSpline
210
0.0
220
0.0
230
1.0
 70
     8
 71
     3
 72
    11
 73
     7
 74
     0
 42
0.000000001
 43
0.00000001
 40
0.0
 40
0.0
 40
0.0
 40
0.0
 40
0.2603299196076441
 40
0.5282091684100625
 40
0.7614185016387379
 40
1.0
 40
1.0
 40
1.0
 40
1.0
 10
758.4112523265442
 20
504.4105953105079
 30
0.0
 10
759.9586376036136
 20
504.8047493540756
 30
0.0
 10
763.0982809133134
 20
505.6044875474117
 30
0.0
 10
767.3801443652558
 20
506.6951785563696
 30
0.0
 10
771.2662318345491
 20
507.6850549318091
 30
0.0
 10
773.4246377484135
 20
508.2348511125331
 30
0.0
 10
774.5161293216308
 20
508.5128793992387
 30
0.0
  0
SPLINE
  5
FE
330
1F
100
AcDbEntity
  8
0
  6
Continuous
 62
     7
370
    25
100
AcDbSpline
210
0.0
220
0.0
230
1.0
 70
     8
 71
     3
 72
    12
 73
     8
 74
     0
 42
0.000000001
 43
0.00000001
 40
0.0
 40
0.0
 40
0.0
 40
0.0
 40
0.2228960819724689
 40
0.4458324026429489
 40
0.6679289775618198
 40
0.88891347528408
 40
0.9999999999999999
 40
0.9999999999999999
 40
0.9999999999999999
 40
0.9999999999999999
 10
758.4112523265442
 20
504.4105953105079
 30
0.0
 10
758.3366735051948
 20
504.3835699117936
 30
0.0
 10
758.187502399026
 20
504.3295142355582
 30
0.0
 10
758.0135621771849
 20
504.1597575081371
 30
0.0
 10
757.9042108697927
 20
503.9474098975491
 30
0.0
 10
757.8745840223071
 20
503.7478972662959
 30
0.0
 10
757.8922785944768
 20
503.6312379749839
 30
0.0
 10
757.8981978960594
 20
503.5922123618709
 30
0.0
  0
LINE
  5
FF
330
1F
100
AcDbEntity
  8
0
  6
Continuous
 62
     7
370
    25
100
AcDbLine
 10
758.008660204
 20
503.0512145289
 30
0.0
 11
757.8981978961
 21
503.5922123619
 31
0.0
  0
SPLINE
  5
100
330
1F
100
AcDbEntity
  8
0
  6
Continuous
 62
     7
370
    25
100
AcDbSpline
210
0.0
220
0.0
230
1.0
 70
     8
 71
     3
 72
    12
 73
     8
 74
     0
 42
0.000000001
 43
0.00000001
 40
0.0
 40
0.0
 40
0.0
 40
0.0
 40
0.2201330813023979
 40
0.440255662131011
 40
0.660743912870295
 40
0.8821603740019399
 40
1.0
 40
1.0
 40
1.0
 40
1.0
 10
758.0086602039894
 20
503.0512145288574
 30
0.0
 10
758.0318883166061
 20
502.9758986979049
 30
0.0
 10
758.0783434338451
 20
502.8252706286081
 30
0.0
 10
758.2376107458557
 20
502.6443629717263
 30
0.0
 10
758.442202317069
 20
502.5244855124918
 30
0.0
 10
758.6408283348646
 20
502.483377675537
 30
0.0
 10
758.7600723283398
 20
502.4953298033208
 30
0.0
 10
758.8014913864693
 20
502.4994813405262
 30
0.0
  0
SPLINE
  5
101
330
1F
100
AcDbEntity
  8
0
  6
Continuous
 62
     7
370
    25
100
AcDbSpline
210
0.0
220
0.0
230
1.0
 70
     8
 71
     3
 72
    11
 73
     7
 74
     0
 42
0.000000001
 43
0.00000001
 40
0.0
 40
0.0
 40
0.0
 40
0.0
 40
0.2832273575434041
 40
0.5762691476725015
 40
0.7861911957139721
 40
1.0
 40
1.0
 40
1.0
 40
1.0
 10
775.2254096932968
 20
505.0392939277278
 30
0.0
 10
773.893818244207
 20
504.833376009042
 30
0.0
 10
771.1844928595737
 20
504.4144046761847
 30
0.0
 10
766.8421924493814
 20
503.7429037586351
 30
0.0
 10
762.6684552447952
 20
503.0974755318915
 30
0.0
 10
760.0983376456614
 20
502.7000279601749
 30
0.0
 10
758.8014913864693
 20
502.4994813405262
 30
0.0
  0
SPLINE
  5
102
330
1F
100
AcDbEntity
  8
0
  6
Continuous
 62
     7
370
    25
100
AcDbSpline
210
0.0
220
0.0
230
1.0
 70
     8
 71
     3
 72
    12
 73
     8
 74
     0
 42
0.000000001
 43
0.00000001
 40
0.0
 40
0.0
 40
0.0
 40
0.0
 40
0.1369199181287834
 40
0.2732903626318654
 40
0.4609294141850532
 40
0.7173047651449501
 40
1.0
 40
1.0
 40
1.0
 40
1.0
 10
710.5372263260444
 20
476.267697898327
 30
0.0
 10
710.5787007582502
 20
476.2212705136286
 30
0.0
 10
710.6614831815261
 20
476.1286020620716
 30
0.0
 10
710.8364321225517
 20
476.0309510063535
 30
0.0
 10
711.0574420496872
 20
475.9780346026093
 30
0.0
 10
711.317575681129
 20
476.0049592144726
 30
0.0
 10
711.4663626480404
 20
476.1035546610046
 30
0.0
 10
711.544388360556
 20
476.1552593238937
 30
0.0
  0
SPLINE
  5
103
330
1F
100
AcDbEntity
  8
0
  6
Continuous
 62
     7
370
    25
100
AcDbSpline
210
0.0
220
0.0
230
1.0
 70
     8
 71
     3
 72
    11
 73
     7
 74
     0
 42
0.000000001
 43
0.00000001
 40
0.0
 40
0.0
 40
0.0
 40
0.0
 40
0.2603296153871656
 40
0.5282089907498801
 40
0.7614184883751266
 40
1.0
 40
1.0
 40
1.0
 40
1.0
 10
724.2744652696213
 20
486.8389324231591
 30
0.0
 10
723.0513386528255
 20
485.8124272246102
 30
0.0
 10
720.5696138023659
 20
483.7296473836818
 30
0.0
 10
717.1850200542343
 20
480.8891401979756
 30
0.0
 10
714.1132653705972
 20
478.3111810324414
 30
0.0
 10
712.4071561932407
 20
476.8793344324531
 30
0.0
 10
711.544388360556
 20
476.1552593238937
 30
0.0
  0
SPLINE
  5
104
330
1F
100
AcDbEntity
  8
0
  6
Continuous
 62
     7
370
    25
100
AcDbSpline
210
0.0
220
0.0
230
1.0
 70
     8
 71
     3
 72
    12
 73
     8
 74
     0
 42
0.000000001
 43
0.00000001
 40
0.0
 40
0.0
 40
0.0
 40
0.0
 40
0.2229012167606393
 40
0.4458330852696538
 40
0.6679319253536709
 40
0.8889158420619925
 40
1.0
 40
1.0
 40
1.0
 40
1.0
 10
724.2744652696213
 20
486.8389324231591
 30
0.0
 10
724.3299362390292
 20
486.8956401138311
 30
0.0
 10
724.440885805808
 20
487.0090632932027
 30
0.0
 10
724.523934005751
 20
487.2374833365828
 30
0.0
 10
724.5303375506074
 20
487.4762483419792
 30
0.0
 10
724.470446732586
 20
487.6688515038825
 30
0.0
 10
724.4038968403167
 20
487.7662849028688
 30
0.0
 10
724.3816344209274
 20
487.7988785422692
 30
0.0
  0
SPLINE
  5
105
330
1F
100
AcDbEntity
  8
0
  6
Continuous
 62
     7
370
    25
100
AcDbSpline
210
0.0
220
0.0
230
1.0
 70
     8
 71
     3
 72
     9
 73
     5
 74
     0
 42
0.000000001
 43
0.00000001
 40
0.0
 40
0.0
 40
0.0
 40
0.0
 40
0.4999977481175189
 40
1.0
 40
1.0
 40
1.0
 40
1.0
 10
724.0473752983173
 20
488.2383711204218
 30
0.0
 10
724.1030843462169
 20
488.1651222652096
 30
0.0
 10
724.214502943819
 20
488.018623894991
 30
0.0
 10
724.325923761287
 20
487.8721272131053
 30
0.0
 10
724.3816344209274
 20
487.7988785422692
 30
0.0
  0
SPLINE
  5
106
330
1F
100
AcDbEntity
  8
0
  6
Continuous
 62
     7
370
    25
100
AcDbSpline
210
0.0
220
0.0
230
1.0
 70
     8
 71
     3
 72
    12
 73
     8
 74
     0
 42
0.000000001
 43
0.00000001
 40
0.0
 40
0.0
 40
0.0
 40
0.0
 40
0.2201326019131847
 40
0.4402562830588305
 40
0.6607461038178247
 40
0.8821619031042891
 40
1.0
 40
1.0
 40
1.0
 40
1.0
 10
724.0473752983173
 20
488.2383711204218
 30
0.0
 10
723.9937704385276
 20
488.2961505029863
 30
0.0
 10
723.886562891259
 20
488.4117069266337
 30
0.0
 10
723.6645750609682
 20
488.5055949765056
 30
0.0
 10
723.4282323101439
 20
488.5248326384132
 30
0.0
 10
723.2314415556665
 20
488.4756890716876
 30
0.0
 10
723.1291938463823
 20
488.4131827283399
 30
0.0
 10
723.0936786301693
 20
488.3914714712935
 30
0.0
  0
SPLINE
  5
107
330
1F
100
AcDbEntity
  8
0
  6
Continuous
 62
     7
370
    25
100
AcDbSpline
210
0.0
220
0.0
230
1.0
 70
     8
 71
     3
 72
    11
 73
     7
 74
     0
 42
0.000000001
 43
0.00000001
 40
0.0
 40
0.0
 40
0.0
 40
0.0
 40
0.2832270809255083
 40
0.5762690706391955
 40
0.7861908234547637
 40
1.0
 40
1.0
 40
1.0
 40
1.0
 10
709.3982188172897
 20
478.9771071203338
 30
0.0
 10
710.508594675924
 20
479.7403884282319
 30
0.0
 10
712.7678251916799
 20
481.2934016800064
 30
0.0
 10
716.3887532303291
 20
483.7824543435289
 30
0.0
 10
719.869119111578
 20
486.1748848239489
 30
0.0
 10
722.0122715014188
 20
487.6481040165725
 30
0.0
 10
723.0936786301693
 20
488.3914714712935
 30
0.0
  0
SPLINE
  5
108
330
1F
100
AcDbEntity
  8
0
  6
Continuous
 62
     7
370
    25
100
AcDbSpline
210
0.0
220
0.0
230
1.0
 70
     8
 71
     3
 72
    12
 73
     8
 74
     0
 42
0.000000001
 43
0.00000001
 40
0.0
 40
0.0
 40
0.0
 40
0.0
 40
0.3203296501690459
 40
0.561925303820125
 40
0.7389294736071105
 40
0.8801317545552402
 40
1.0
 40
1.0
 40
1.0
 40
1.0
 10
709.3982188172897
 20
478.9771071203338
 30
0.0
 10
709.3188239623013
 20
478.9063186619499
 30
0.0
 10
709.179548756314
 20
478.782140878334
 30
0.0
 10
709.0931844728814
 20
478.5275803000307
 30
0.0
 10
709.0920599621995
 20
478.3063998220175
 30
0.0
 10
709.1427311028966
 20
478.1209540799666
 30
0.0
 10
709.2077398349894
 20
478.0219545165129
 30
0.0
 10
709.2375880249103
 20
477.9764997341024
 30
0.0
  0
LINE
  5
109
330
1F
100
AcDbEntity
  8
0
  6
Continuous
 62
     7
370
    25
100
AcDbLine
 10
709.2375880249
 20
477.9764997341
 30
0.0
 11
709.8874090381
 21
477.1220988162
 31
0.0
  0
LINE
  5
10A
330
1F
100
AcDbEntity
  8
0
  6
Continuous
 62
     7
370
    25
100
AcDbLine
 10
710.537226326
 20
476.2676978983
 30
0.0
 11
709.8874090381
 21
477.1220988162
 31
0.0
  0
SPLINE
  5
10B
330
1F
100
AcDbEntity
  8
0
  6
Continuous
 62
     7
370
    25
100
AcDbSpline
210
0.0
220
0.0
230
1.0
 70
     8
 71
     3
 72
    12
 73
     8
 74
     0
 42
0.000000001
 43
0.00000001
 40
0.0
 40
0.0
 40
0.0
 40
0.0
 40
0.220133058641266
 40
0.4402537406780491
 40
0.660743442096555
 40
0.8821627926782487
 40
1.0
 40
1.0
 40
1.0
 40
1.0
 10
754.6277282901367
 20
510.8026570208656
 30
0.0
 10
754.6813331827889
 20
510.7448775182457
 30
0.0
 10
754.78853995425
 20
510.6293217615596
 30
0.0
 10
755.0105254570301
 20
510.5354305701918
 30
0.0
 10
755.2468690847006
 20
510.5161949123771
 30
0.0
 10
755.4436601961861
 20
510.565339316106
 30
0.0
 10
755.545909674402
 20
510.6278445149166
 30
0.0
 10
755.5814249582847
 20
510.6495550401794
 30
0.0
  0
SPLINE
  5
10C
330
1F
100
AcDbEntity
  8
0
  6
Continuous
 62
     7
370
    25
100
AcDbSpline
210
0.0
220
0.0
230
1.0
 70
     8
 71
     3
 72
    11
 73
     7
 74
     0
 42
0.000000001
 43
0.00000001
 40
0.0
 40
0.0
 40
0.0
 40
0.0
 40
0.2832269715621225
 40
0.576269134043839
 40
0.786190743553654
 40
1.0
 40
1.0
 40
1.0
 40
1.0
 10
769.276881045874
 20
520.0639186926471
 30
0.0
 10
768.1665068321288
 20
519.3006373874612
 30
0.0
 10
765.907278542216
 20
517.7476233706625
 30
0.0
 10
762.2863469416579
 20
515.2585750368218
 30
0.0
 10
758.8059837064052
 20
512.8661423035179
 30
0.0
 10
756.6628322047889
 20
511.3929229600475
 30
0.0
 10
755.5814249582847
 20
510.6495550401794
 30
0.0
  0
SPLINE
  5
10D
330
1F
100
AcDbEntity
  8
0
  6
Continuous
 62
     7
370
    25
100
AcDbSpline
210
0.0
220
0.0
230
1.0
 70
     8
 71
     3
 72
    12
 73
     8
 74
     0
 42
0.000000001
 43
0.00000001
 40
0.0
 40
0.0
 40
0.0
 40
0.0
 40
0.3203309170293834
 40
0.5619272443420145
 40
0.7389305498671686
 40
0.88013274143707
 40
1.0
 40
1.0
 40
1.0
 40
1.0
 10
769.276881045874
 20
520.0639186926471
 30
0.0
 10
769.3562776229095
 20
520.1347072650524
 30
0.0
 10
769.4955557798776
 20
520.258885186408
 30
0.0
 10
769.581918037961
 20
520.5134477304522
 30
0.0
 10
769.5830456658654
 20
520.7346287628396
 30
0.0
 10
769.5323668854613
 20
520.9200714150203
 30
0.0
 10
769.4673619072271
 20
521.0190726009954
 30
0.0
 10
769.4375155635437
 20
521.0645279415237
 30
0.0
  0
LINE
  5
10E
330
1F
100
AcDbEntity
  8
0
  6
Continuous
 62
     7
370
    25
100
AcDbLine
 10
768.7876982756
 20
521.9189307221
 30
0.0
 11
769.4375155635
 21
521.0645279415
 31
0.0
  0
LINE
  5
10F
330
1F
100
AcDbEntity
  8
0
  6
Continuous
 62
     7
370
    25
100
AcDbLine
 10
768.7876982756
 20
521.9189307221
 30
0.0
 11
768.1378809877
 21
522.7733297773
 31
0.0
  0
SPLINE
  5
110
330
1F
100
AcDbEntity
  8
0
  6
Continuous
 62
     7
370
    25
100
AcDbSpline
210
0.0
220
0.0
230
1.0
 70
     8
 71
     3
 72
    12
 73
     8
 74
     0
 42
0.000000001
 43
0.00000001
 40
0.0
 40
0.0
 40
0.0
 40
0.0
 40
0.1369229056846728
 40
0.2732924369140217
 40
0.4609292862733625
 40
0.7173091217396174
 40
1.0
 40
1.0
 40
1.0
 40
1.0
 10
768.1378809876999
 20
522.7733297772991
 30
0.0
 10
768.0964054385413
 20
522.8197580464855
 30
0.0
 10
768.0136219638171
 20
522.9124269448279
 30
0.0
 10
767.838671115411
 20
523.0100743411248
 30
0.0
 10
767.6176644926438
 20
523.0629933094247
 30
0.0
 10
767.3575247552624
 20
523.0360666967186
 30
0.0
 10
767.2087414989097
 20
522.9374730987747
 30
0.0
 10
767.1307189531883
 20
522.8857702143775
 30
0.0
  0
SPLINE
  5
111
330
1F
100
AcDbEntity
  8
0
  6
Continuous
 62
     7
370
    25
100
AcDbSpline
210
0.0
220
0.0
230
1.0
 70
     8
 71
     3
 72
    11
 73
     7
 74
     0
 42
0.000000001
 43
0.00000001
 40
0.0
 40
0.0
 40
0.0
 40
0.0
 40
0.2603296798188657
 40
0.5282089867806331
 40
0.7614182157443383
 40
1.0
 40
1.0
 40
1.0
 40
1.0
 10
754.4006345935425
 20
512.2020958490955
 30
0.0
 10
755.6237625591363
 20
513.2286007265913
 30
0.0
 10
758.1054895134307
 20
515.3113793849628
 30
0.0
 10
761.4900833005895
 20
518.1518875097202
 30
0.0
 10
764.561835281527
 20
520.7298463010842
 30
0.0
 10
766.2679482332104
 20
522.1616938198686
 30
0.0
 10
767.1307189531883
 20
522.8857702143775
 30
0.0
  0
SPLINE
  5
112
330
1F
100
AcDbEntity
  8
0
  6
Continuous
 62
     7
370
    25
100
AcDbSpline
210
0.0
220
0.0
230
1.0
 70
     8
 71
     3
 72
    12
 73
     8
 74
     0
 42
0.000000001
 43
0.00000001
 40
0.0
 40
0.0
 40
0.0
 40
0.0
 40
0.2228971281135927
 40
0.445830413522612
 40
0.6679288429676605
 40
0.8889137219203762
 40
1.0
 40
1.0
 40
1.0
 40
1.0
 10
754.4006345935425
 20
512.2020958490955
 30
0.0
 10
754.3451670408876
 20
512.1453874048104
 30
0.0
 10
754.2342229378995
 20
512.0319613172703
 30
0.0
 10
754.1511680833671
 20
511.8035454482427
 30
0.0
 10
754.1447670528461
 20
511.5647793580749
 30
0.0
 10
754.2046554505653
 20
511.3721741522428
 30
0.0
 10
754.271209023802
 20
511.2747417644772
 30
0.0
 10
754.2934728928169
 20
511.2421481438266
 30
0.0
  0
SPLINE
  5
113
330
1F
100
AcDbEntity
  8
0
  6
Continuous
 62
     7
370
    25
100
AcDbSpline
210
0.0
220
0.0
230
1.0
 70
     8
 71
     3
 72
     9
 73
     5
 74
     0
 42
0.000000001
 43
0.00000001
 40
0.0
 40
0.0
 40
0.0
 40
0.0
 40
0.5000040842346808
 40
1.0
 40
1.0
 40
1.0
 40
1.0
 10
754.6277282901367
 20
510.8026570208656
 30
0.0
 10
754.572017422128
 20
510.8759052421901
 30
0.0
 10
754.4605965962485
 20
511.0224004881971
 30
0.0
 10
754.3491804905944
 20
511.1688993241739
 30
0.0
 10
754.2934728928169
 20
511.2421481438266
 30
0.0
  0
SPLINE
  5
114
330
1F
100
AcDbEntity
  8
0
  6
Continuous
 62
     7
370
    25
100
AcDbSpline
210
0.0
220
0.0
230
1.0
 70
     8
 71
     3
 72
    19
 73
    15
 74
     0
 42
0.000000001
 43
0.00000001
 40
0.0
 40
0.0
 40
0.0
 40
0.0
 40
0.0903184209753776
 40
0.2045632543242686
 40
0.2714199170029802
 40
0.3439360917414255
 40
0.4207855149593369
 40
0.5000000007204995
 40
0.5792143978765865
 40
0.656063830963786
 40
0.728580145627643
 40
0.7954368269846097
 40
0.9096815960319612
 40
0.9999999999999999
 40
0.9999999999999999
 40
0.9999999999999999
 40
0.9999999999999999
 10
731.875111735638
 20
502.9193318017112
 30
0.0
 10
732.2550907623081
 20
503.5981038206378
 30
0.0
 10
733.1157097305226
 20
505.1354625525153
 30
0.0
 10
735.0078654274807
 20
506.6118038516072
 30
0.0
 10
737.0175643961867
 20
507.4545512132057
 30
0.0
 10
738.8575422083997
 20
507.7819698795292
 30
0.0
 10
740.8293228712834
 20
507.6674974962405
 30
0.0
 10
742.7716061058517
 20
507.060319193607
 30
0.0
 10
744.5045767737035
 20
505.9935760884404
 30
0.0
 10
745.8852080419103
 20
504.5811732984018
 30
0.0
 10
746.8459538801328
 20
502.9781465042045
 30
0.0
 10
747.5293293697605
 20
500.9088190565844
 30
0.0
 10
747.6575504102182
 20
498.5122817989172
 30
0.0
 10
747.0626509209275
 20
496.8539007033556
 30
0.0
 10
746.799991852816
 20
496.1216949425923
 30
0.0
  0
SPLINE
  5
115
330
1F
100
AcDbEntity
  8
0
  6
Continuous
 62
     7
370
    25
100
AcDbSpline
210
0.0
220
0.0
230
1.0
 70
     8
 71
     3
 72
    19
 73
    15
 74
     0
 42
0.000000001
 43
0.00000001
 40
0.0
 40
0.0
 40
0.0
 40
0.0
 40
0.0903183251055364
 40
0.2045631326209019
 40
0.2714198074805284
 40
0.3439362627498911
 40
0.420785394274694
 40
0.4999998725198946
 40
0.5792145241641402
 40
0.656063752384696
 40
0.7285801085527962
 40
0.7954368225484715
 40
0.9096815575765291
 40
1.0
 40
1.0
 40
1.0
 40
1.0
 10
746.799991852816
 20
496.1216949425923
 30
0.0
 10
746.4200142674014
 20
495.442922895535
 30
0.0
 10
745.559398162006
 20
493.9055633827309
 30
0.0
 10
743.6672411278116
 20
492.4292250344953
 30
0.0
 10
741.657541017469
 20
491.5864743933074
 30
0.0
 10
739.8175624268273
 20
491.259058802922
 30
0.0
 10
737.8457818514568
 20
491.3735303214183
 30
0.0
 10
735.9035002689295
 20
491.9807103514833
 30
0.0
 10
734.170523669209
 20
493.0474464392165
 30
0.0
 10
732.7899007986128
 20
494.4598583307185
 30
0.0
 10
731.8291480541228
 20
496.0628791839812
 30
0.0
 10
731.1457761039404
 20
498.1322085434782
 30
0.0
 10
731.0175470941132
 20
500.5287457508966
 30
0.0
 10
731.6124507304089
 20
502.1871260824115
 30
0.0
 10
731.875111735638
 20
502.9193318017112
 30
0.0
  0
SPLINE
  5
116
330
1F
100
AcDbEntity
  8
0
  6
Continuous
 62
     7
370
    25
100
AcDbSpline
210
0.0
220
0.0
230
1.0
 70
     8
 71
     3
 72
     9
 73
     5
 74
     0
 42
0.000000001
 43
0.00000001
 40
0.0
 40
0.0
 40
0.0
 40
0.0
 40
0.7733567139149148
 40
1.0
 40
1.0
 40
1.0
 40
1.0
 10
747.509048707064
 20
495.7987523205863
 30
0.0
 10
747.5241103353542
 20
495.7918911343107
 30
0.0
 10
747.5435859900152
 20
495.7830191789087
 30
0.0
 10
747.5169364013907
 20
495.795158996767
 30
0.0
 10
747.5108964510521
 20
495.7979104049789
 30
0.0
  0
ARC
  5
117
330
1F
100
AcDbEntity
  8
0
  6
Continuous
 62
     7
370
    25
100
AcDbCircle
 10
739.3375517172
 20
499.5205137261
 30
0.0
 40
8.911311195999975
100
AcDbArc
 50
157.3074712684
 51
213.6929108093
  0
SPLINE
  5
118
330
1F
100
AcDbEntity
  8
0
  6
Continuous
 62
     7
370
    25
100
AcDbSpline
210
0.0
220
0.0
230
1.0
 70
     8
 71
     3
 72
    13
 73
     9
 74
     0
 42
0.000000001
 43
0.00000001
 40
0.0
 40
0.0
 40
0.0
 40
0.0
 40
0.2017362872405225
 40
0.347351771920663
 40
0.5000004045689562
 40
0.6526504193988376
 40
0.7982660329049371
 40
1.0
 40
1.0
 40
1.0
 40
1.0
 10
731.2277792163452
 20
503.2141643144475
 30
0.0
 10
731.192449417742
 20
503.2302554874247
 30
0.0
 10
731.1316181795236
 20
503.2579614471325
 30
0.0
 10
731.1578538740375
 20
503.2460118078297
 30
0.0
 10
731.2431495137113
 20
503.2071616338308
 30
0.0
 10
731.3900283664377
 20
503.140266631214
 30
0.0
 10
731.6017358835855
 20
503.0438426497253
 30
0.0
 10
731.7746731131845
 20
502.9650772395806
 30
0.0
 10
731.875111735638
 20
502.9193318017112
 30
0.0
  0
ARC
  5
119
330
1F
100
AcDbEntity
  8
0
  6
Continuous
 62
     7
370
    25
100
AcDbCircle
 10
739.3375517172
 20
499.5205137261
 30
0.0
 40
8.911311196000065
100
AcDbArc
 50
337.3074712698
 51
33.6929108129
  0
CIRCLE
  5
11A
330
1F
100
AcDbEntity
  8
0
  6
Continuous
 62
     7
370
    25
100
AcDbCircle
 10
739.3375517172
 20
499.5205137261
 30
0.0
 40
57.0
  0
SPLINE
  5
11B
330
1F
100
AcDbEntity
  8
0
  6
Continuous
 62
     7
370
    25
100
AcDbSpline
210
0.0
220
0.0
230
1.0
 70
     8
 71
     3
 72
    35
 73
    31
 74
     0
 42
0.000000001
 43
0.00000001
 40
0.0
 40
0.0
 40
0.0
 40
0.0
 40
0.0282546047898944
 40
0.0583834484679178
 40
0.0903495475362753
 40
0.1258616434711755
 40
0.1640104771035612
 40
0.2048405185866176
 40
0.237462485871906
 40
0.2716127072605447
 40
0.3071914400136716
 40
0.3440550089201921
 40
0.3820151111683427
 40
0.4208413558474517
 40
0.4602672486183675
 40
0.5000000239680876
 40
0.5397327634304497
 40
0.5791586477031458
 40
0.6179848898711038
 40
0.6559449954626511
 40
0.6928085758007335
 40
0.7283872972145399
 40
0.7625375206255811
 40
0.7951594762280048
 40
0.8359928449904919
 40
0.8741415860992785
 40
0.9096504705970458
 40
0.9416198354124375
 40
0.9717470341559371
 40
1.0
 40
1.0
 40
1.0
 40
1.0
 10
783.345410055693
 20
494.8748821892129
 30
0.0
 10
783.4493312542666
 20
496.1802406260937
 30
0.0
 10
783.6640671526008
 20
498.877547050958
 30
0.0
 10
783.5132740608153
 20
503.0687291153056
 30
0.0
 10
782.9395174934107
 20
507.559030893104
 30
0.0
 10
781.7990421057838
 20
512.327661908189
 30
0.0
 10
779.9765670802589
 20
517.3204609937775
 30
0.0
 10
777.609339891618
 20
521.9322608898034
 30
0.0
 10
774.8338022538139
 20
526.0814360853504
 30
0.0
 10
771.7942297581027
 20
529.7311996576822
 30
0.0
 10
768.2316925572836
 20
533.1638399796794
 30
0.0
 10
764.1613360962649
 20
536.2777234520184
 30
0.0
 10
759.6236603130475
 20
538.970088750021
 30
0.0
 10
754.6855637243652
 20
541.1450440433924
 30
0.0
 10
749.4388098829734
 20
542.7218918409915
 30
0.0
 10
743.9952645716057
 20
543.6428298132774
 30
0.0
 10
738.4794126702278
 20
543.8788051235183
 30
0.0
 10
733.0190617543403
 20
543.4322386187135
 30
0.0
 10
727.7356793131314
 20
542.3362960750717
 30
0.0
 10
722.7358502937271
 20
540.6507554156091
 30
0.0
 10
718.1050317751112
 20
538.4553968198821
 30
0.0
 10
713.9042848095947
 20
535.8422733437318
 30
0.0
 10
710.1696359798369
 20
532.907624962141
 30
0.0
 10
706.5888137350634
 20
529.42933227322
 30
0.0
 10
703.3107587816094
 20
525.4133162116827
 30
0.0
 10
700.4859749999126
 20
520.9110864680023
 30
0.0
 10
698.374988584604
 20
516.4856810998476
 30
0.0
 10
696.8763124968754
 20
512.214224738733
 30
0.0
 10
695.8538160604821
 20
508.1468884047769
 30
0.0
 10
695.5006201408438
 20
505.4643531483801
 30
0.0
 10
695.3296916701158
 20
504.1661454864131
 30
0.0
  0
SPLINE
  5
11C
330
1F
100
AcDbEntity
  8
0
  6
Continuous
 62
     7
370
    25
100
AcDbSpline
210
0.0
220
0.0
230
1.0
 70
     8
 71
     3
 72
    35
 73
    31
 74
     0
 42
0.000000001
 43
0.00000001
 40
0.0
 40
0.0
 40
0.0
 40
0.0
 40
0.0282546119976823
 40
0.0583834423735171
 40
0.0903495411054231
 40
0.1258616505334509
 40
0.1640104766341587
 40
0.2048405267901169
 40
0.2374624825897438
 40
0.2716127190701887
 40
0.3071914321420691
 40
0.3440550006605912
 40
0.3820151187263865
 40
0.4208413629968394
 40
0.460267281029008
 40
0.5000000008542412
 40
0.5397327398984061
 40
0.5791586215708144
 40
0.6179848895820111
 40
0.6559450033387839
 40
0.6928085533201591
 40
0.7283872900442397
 40
0.7625375296608665
 40
0.7951595041511305
 40
0.8359928347604904
 40
0.8741416067512674
 40
0.9096504760320073
 40
0.9416198428218775
 40
0.9717470278254167
 40
1.0
 40
1.0
 40
1.0
 40
1.0
 10
695.3296916701158
 20
504.1661454864131
 30
0.0
 10
695.2257694602794
 20
502.8607867367268
 30
0.0
 10
695.0110315495335
 20
500.1634806351481
 30
0.0
 10
695.1618289230721
 20
495.9722989910443
 30
0.0
 10
695.7355827267339
 20
491.4819967196743
 30
0.0
 10
696.876065666715
 20
486.7133672989102
 30
0.0
 10
698.6985328558466
 20
481.7205648031039
 30
0.0
 10
701.0657634581445
 20
477.1087666220839
 30
0.0
 10
703.8413025248099
 20
472.9595919180718
 30
0.0
 10
706.8808727646636
 20
469.3098274444002
 30
0.0
 10
710.4434076221467
 20
465.8771849529879
 30
0.0
 10
714.5137638972176
 20
462.7633010126993
 30
0.0
 10
719.0514432506168
 20
460.0709404105228
 30
0.0
 10
723.9895406979225
 20
457.8959825790114
 30
0.0
 10
729.2362939176726
 20
456.3191370530007
 30
0.0
 10
734.6798378427851
 20
455.3981992725724
 30
0.0
 10
740.1956870294314
 20
455.1622256179213
 30
0.0
 10
745.6560393715437
 20
455.6087866093282
 30
0.0
 10
750.9394238671553
 20
456.7047284333875
 30
0.0
 10
755.9392514915328
 20
458.3902742389863
 30
0.0
 10
760.5700690826378
 20
460.5856330150926
 30
0.0
 10
764.7708203631666
 20
463.1987504052361
 30
0.0
 10
768.505466197742
 20
466.1334064096329
 30
0.0
 10
772.086293144441
 20
469.6116939375126
 30
0.0
 10
775.3643455869508
 20
473.6277130406311
 30
0.0
 10
778.1891320702391
 20
478.1299397483416
 30
0.0
 10
780.300117359052
 20
482.5553468425287
 30
0.0
 10
781.7987908477662
 20
486.8268028190105
 30
0.0
 10
782.8212855547345
 20
490.894139315005
 30
0.0
 10
783.1744815084704
 20
493.5766742345946
 30
0.0
 10
783.345410055693
 20
494.8748821892129
 30
0.0
  0
SPLINE
  5
11D
330
1F
100
AcDbEntity
  8
0
  6
Continuous
 62
     7
370
    25
100
AcDbSpline
210
0.0
220
0.0
230
1.0
 70
     8
 71
     3
 72
    11
 73
     7
 74
     0
 42
0.000000001
 43
0.00000001
 40
0.0
 40
0.0
 40
0.0
 40
0.0
 40
0.270699672847743
 40
0.5623156950171116
 40
0.7892988910465257
 40
1.0
 40
1.0
 40
1.0
 40
1.0
 10
695.3296916701158
 20
504.1661454864131
 30
0.0
 10
695.8679459378626
 20
504.1093253569645
 30
0.0
 10
696.9860441589647
 20
503.9912947356277
 30
0.0
 10
698.2696690883994
 20
503.8557900373257
 30
0.0
 10
699.0392805122693
 20
503.7745488706675
 30
0.0
 10
699.1516725143957
 20
503.7626830019644
 30
0.0
 10
699.2057779945692
 20
503.756970775901
 30
0.0
  0
ARC
  5
11E
330
1F
100
AcDbEntity
  8
0
  6
Continuous
 62
     7
370
    25
100
AcDbCircle
 10
739.3375517172
 20
499.5205137261
 30
0.0
 40
40.35476230894871
100
AcDbArc
 50
173.973964907
 51
353.973964907
  0
SPLINE
  5
11F
330
1F
100
AcDbEntity
  8
0
  6
Continuous
 62
     7
370
    25
100
AcDbSpline
210
0.0
220
0.0
230
1.0
 70
     8
 71
     3
 72
    11
 73
     7
 74
     0
 42
0.000000001
 43
0.00000001
 40
0.0
 40
0.0
 40
0.0
 40
0.0
 40
0.270699778003287
 40
0.5623165991441846
 40
0.7892982201750457
 40
1.0
 40
1.0
 40
1.0
 40
1.0
 10
779.46932745653
 20
495.2840559684025
 30
0.0
 10
779.5535946428806
 20
495.2751607075429
 30
0.0
 10
779.7286403632639
 20
495.2566828466742
 30
0.0
 10
780.7775389825031
 20
495.1459563193093
 30
0.0
 10
782.0594243441697
 20
495.0106361041617
 30
0.0
 10
782.9275111179614
 20
494.9189973114431
 30
0.0
 10
783.345410055693
 20
494.874882189213
 30
0.0
  0
ARC
  5
120
330
1F
100
AcDbEntity
  8
0
  6
Continuous
 62
     7
370
    25
100
AcDbCircle
 10
739.3375517172
 20
499.5205137261
 30
0.0
 40
40.35476230894871
100
AcDbArc
 50
353.973964907
 51
173.973964907
  0
CIRCLE
  5
121
330
1F
100
AcDbEntity
  8
0
  6
Continuous
 62
     7
370
    25
100
AcDbCircle
 10
739.3375517172
 20
499.5205137261
 30
0.0
 40
39.93812333099991
  0
ARC
  5
122
330
1F
100
AcDbEntity
  8
0
  6
Continuous
 62
     7
370
    25
100
AcDbCircle
 10
556.8375517172
 20
344.5205137261
 30
0.0
 40
60.00000000000017
100
AcDbArc
 50
180.0
 51
270.0
  0
LINE
  5
123
330
1F
100
AcDbEntity
  8
0
  6
Continuous
 62
     7
370
    25
100
AcDbLine
 10
556.8375526138
 20
279.5205085106
 30
0.0
 11
556.8375526138
 21
284.5205186434
 31
0.0
  0
LINE
  5
124
330
1F
100
AcDbEntity
  8
0
  6
Continuous
 62
     7
370
    25
100
AcDbLine
 10
496.8375502296
 20
344.5205210276
 30
0.0
 11
491.837554998
 21
344.5205210276
 31
0.0
  0
ARC
  5
125
330
1F
100
AcDbEntity
  8
0
  6
Continuous
 62
     7
370
    25
100
AcDbCircle
 10
556.8375517172
 20
344.5205137261
 30
0.0
 40
65.00000000000006
100
AcDbArc
 50
180.0
 51
270.0
  0
ARC
  5
126
330
1F
100
AcDbEntity
  8
0
  6
Continuous
 62
     7
370
    25
100
AcDbCircle
 10
921.8375517172
 20
344.5205137261
 30
0.0
 40
65.00000000000011
100
AcDbArc
 50
270.0
 51
0.0
  0
LINE
  5
127
330
1F
100
AcDbEntity
  8
0
  6
Continuous
 62
     7
370
    25
100
AcDbLine
 10
921.8375472494
 20
279.5205085106
 30
0.0
 11
921.8375472494
 21
284.5205186434
 31
0.0
  0
ARC
  5
128
330
1F
100
AcDbEntity
  8
0
  6
Continuous
 62
     7
370
    25
100
AcDbCircle
 10
921.8375517172
 20
344.5205137261
 30
0.0
 40
60.00000000000017
100
AcDbArc
 50
270.0
 51
0.0
  0
LINE
  5
129
330
1F
100
AcDbEntity
  8
0
  6
Continuous
 62
     7
370
    25
100
AcDbLine
 10
986.8375448652
 20
344.5205210276
 30
0.0
 11
981.8375496336
 21
344.5205210276
 31
0.0
  0
LINE
  5
12A
330
1F
100
AcDbEntity
  8
0
  6
Continuous
 62
     7
370
    25
100
AcDbLine
 10
921.8375472494
 20
624.5205073186
 30
0.0
 11
556.8375526138
 21
624.5205073186
 31
0.0
  0
LINE
  5
12B
330
1F
100
AcDbEntity
  8
0
  6
Continuous
 62
     7
370
    25
100
AcDbLine
 10
556.8375526138
 20
624.5205073186
 30
0.0
 11
556.8375526138
 21
629.5205174513
 31
0.0
  0
LINE
  5
12C
330
1F
100
AcDbEntity
  8
0
  6
Continuous
 62
     7
370
    25
100
AcDbLine
 10
921.8375472494
 20
624.5205073186
 30
0.0
 11
921.8375472494
 21
629.5205174513
 31
0.0
  0
LINE
  5
12D
330
1F
100
AcDbEntity
  8
0
  6
Continuous
 62
     7
370
    25
100
AcDbLine
 10
921.8375472494
 20
629.5205174513
 30
0.0
 11
556.8375526138
 21
629.5205174513
 31
0.0
  0
LINE
  5
12E
330
1F
100
AcDbEntity
  8
0
  6
Continuous
 62
     7
370
    25
100
AcDbLine
 10
556.8375526138
 20
284.5205186434
 30
0.0
 11
921.8375472494
 21
284.5205186434
 31
0.0
  0
LINE
  5
12F
330
1F
100
AcDbEntity
  8
0
  6
Continuous
 62
     7
370
    25
100
AcDbLine
 10
556.8375526138
 20
279.5205085106
 30
0.0
 11
921.8375472494
 21
279.5205085106
 31
0.0
  0
ARC
  5
130
330
1F
100
AcDbEntity
  8
0
  6
Continuous
 62
     7
370
    25
100
AcDbCircle
 10
556.8375517172
 20
564.5205137261
 30
0.0
 40
60.0
100
AcDbArc
 50
90.0
 51
180.0
  0
LINE
  5
131
330
1F
100
AcDbEntity
  8
0
  6
Continuous
 62
     7
370
    25
100
AcDbLine
 10
496.8375502296
 20
564.5205123849
 30
0.0
 11
491.837554998
 21
564.5205123849
 31
0.0
  0
ARC
  5
132
330
1F
100
AcDbEntity
  8
0
  6
Continuous
 62
     7
370
    25
100
AcDbCircle
 10
556.8375517172
 20
564.5205137261
 30
0.0
 40
65.00000000000011
100
AcDbArc
 50
90.0
 51
180.0
  0
ARC
  5
133
330
1F
100
AcDbEntity
  8
0
  6
Continuous
 62
     7
370
    25
100
AcDbCircle
 10
921.8375517172
 20
564.5205137261
 30
0.0
 40
60.00000000000011
100
AcDbArc
 50
0.0
 51
90.0
  0
LINE
  5
134
330
1F
100
AcDbEntity
  8
0
  6
Continuous
 62
     7
370
    25
100
AcDbLine
 10
986.8375448652
 20
564.5205123849
 30
0.0
 11
981.8375496336
 21
564.5205123849
 31
0.0
  0
ARC
  5
135
330
1F
100
AcDbEntity
  8
0
  6
Continuous
 62
     7
370
    25
100
AcDbCircle
 10
921.8375517172
 20
564.5205137261
 30
0.0
 40
65.00000000000011
100
AcDbArc
 50
0.0
 51
90.0
  0
LINE
  5
136
330
1F
100
AcDbEntity
  8
0
  6
Continuous
 62
     7
370
    25
100
AcDbLine
 10
981.8375496336
 20
344.5205210276
 30
0.0
 11
981.8375496336
 21
564.5205123849
 31
0.0
  0
LINE
  5
137
330
1F
100
AcDbEntity
  8
0
  6
Continuous
 62
     7
370
    25
100
AcDbLine
 10
986.8375448652
 20
344.5205210276
 30
0.0
 11
986.8375448652
 21
564.5205123849
 31
0.0
  0
LINE
  5
138
330
1F
100
AcDbEntity
  8
0
  6
Continuous
 62
     7
370
    25
100
AcDbLine
 10
496.8375502296
 20
344.5205210276
 30
0.0
 11
496.8375502296
 21
564.5205123849
 31
0.0
  0
LINE
  5
139
330
1F
100
AcDbEntity
  8
0
  6
Continuous
 62
     7
370
    25
100
AcDbLine
 10
491.837554998
 20
564.5205123849
 30
0.0
 11
491.837554998
 21
344.5205210276
 31
0.0
  0
LINE
  5
13A
330
1F
100
AcDbEntity
  8
0
  6
Continuous
 62
     7
370
    25
100
AcDbLine
 10
921.8375472494
 20
284.5205186434
 30
0.0
 11
921.8375472494
 21
291.7073933907
 31
0.0
  0
SPLINE
  5
13B
330
1F
100
AcDbEntity
  8
0
  6
Continuous
 62
     7
370
    25
100
AcDbSpline
210
0.0
220
0.0
230
1.0
 70
     8
 71
     3
 72
    21
 73
    17
 74
     0
 42
0.000000001
 43
0.00000001
 40
0.0
 40
0.0
 40
0.0
 40
0.0
 40
0.0711332954359755
 40
0.1424915005419856
 40
0.2136246671341296
 40
0.2847821113764567
 40
0.3561651112046295
 40
0.4273224596052677
 40
0.4983780331236966
 40
0.5696581007070082
 40
0.6407137859210478
 40
0.7117349627253419
 40
0.7829801452368582
 40
0.8540013451477944
 40
0.9270004898417402
 40
1.0
 40
1.0
 40
1.0
 40
1.0
 10
974.6589152284226
 20
344.5205210276233
 30
0.0
 10
974.595436843771
 20
342.5530475910838
 30
0.0
 10
974.4682793681394
 20
338.6118799489726
 30
0.0
 10
973.4455705418774
 20
332.7766348160598
 30
0.0
 10
971.8328455466157
 20
327.0841964684651
 30
0.0
 10
969.5659569766065
 20
321.6140917601996
 30
0.0
 10
966.7121913700871
 20
316.4276214004318
 30
0.0
 10
963.3031240907353
 20
311.5898015694935
 30
0.0
 10
959.3652405836064
 20
307.1757737903249
 30
0.0
 10
954.9671470592635
 20
303.2256038346457
 30
0.0
 10
950.1602924312369
 20
299.7846046367799
 30
0.0
 10
944.992748154973
 20
296.9169071061302
 30
0.0
 10
939.5422874787804
 20
294.6333658617751
 30
0.0
 10
933.8202133634683
 20
292.9634916063852
 30
0.0
 10
927.8945855237523
 20
291.9041940425237
 30
0.0
 10
923.8565633768294
 20
291.7729937174574
 30
0.0
 10
921.8375472493728
 20
291.7073933907138
 30
0.0
  0
LINE
  5
13C
330
1F
100
AcDbEntity
  8
0
  6
Continuous
 62
     7
370
    25
100
AcDbLine
 10
981.8375496336
 20
344.5205210276
 30
0.0
 11
974.6589152284
 21
344.5205210276
 31
0.0
  0
LINE
  5
13D
330
1F
100
AcDbEntity
  8
0
  6
Continuous
 62
     7
370
    25
100
AcDbLine
 10
556.8375526138
 20
284.5205186434
 30
0.0
 11
556.8375526138
 21
291.7073933907
 31
0.0
  0
SPLINE
  5
13E
330
1F
100
AcDbEntity
  8
0
  6
Continuous
 62
     7
370
    25
100
AcDbSpline
210
0.0
220
0.0
230
1.0
 70
     8
 71
     3
 72
    14
 73
    10
 74
     0
 42
0.000000001
 43
0.00000001
 40
0.0
 40
0.0
 40
0.0
 40
0.0
 40
0.1723899624036697
 40
0.3447779361231226
 40
0.459900463032618
 40
0.575029321575207
 40
0.6901520499663119
 40
0.8450518147651223
 40
1.0
 40
1.0
 40
1.0
 40
1.0
 10
921.8375472493728
 20
291.7073933907138
 30
0.0
 10
900.8806969514064
 20
291.7658938393628
 30
0.0
 10
858.9672381129222
 20
291.8828940618017
 30
0.0
 10
802.9972149015443
 20
291.9685429837424
 30
0.0
 10
753.9825498792706
 20
292.0007969187798
 30
0.0
 10
711.9347733639171
 20
291.9958335496761
 30
0.0
 10
665.0520489556429
 20
291.9542193386545
 30
0.0
 10
613.339401664066
 20
291.8665484410226
 30
0.0
 10
575.6734643360269
 20
291.7604506008433
 30
0.0
 10
556.8375526137909
 20
291.7073933907138
 30
0.0
  0
LINE
  5
13F
330
1F
100
AcDbEntity
  8
0
  6
Continuous
 62
     7
370
    25
100
AcDbLine
 10
921.8375472494
 20
624.5205073186
 30
0.0
 11
921.8375472494
 21
617.136430604
 31
0.0
  0
SPLINE
  5
140
330
1F
100
AcDbEntity
  8
0
  6
Continuous
 62
     7
370
    25
100
AcDbSpline
210
0.0
220
0.0
230
1.0
 70
     8
 71
     3
 72
    15
 73
    11
 74
     0
 42
0.000000001
 43
0.00000001
 40
0.0
 40
0.0
 40
0.0
 40
0.0
 40
0.1373001651077669
 40
0.2745993851090845
 40
0.4120528414491433
 40
0.5495025583014927
 40
0.6620833205104323
 40
0.7746658748813485
 40
0.887332789359927
 40
1.0
 40
1.0
 40
1.0
 40
1.0
 10
556.8375526137909
 20
617.1364306040393
 30
0.0
 10
573.5264547117372
 20
617.0859705522131
 30
0.0
 10
606.9041440294798
 20
616.9850507959027
 30
0.0
 10
657.0356277630702
 20
616.8798505416997
 30
0.0
 10
707.21052733159
 20
616.8145533069111
 30
0.0
 10
754.3935015132174
 20
616.8054995216316
 30
0.0
 10
798.5393527585768
 20
616.845968846738
 30
0.0
 10
839.6510091647559
 20
616.916097455231
 30
0.0
 10
880.7551231907497
 20
617.0108061387581
 30
0.0
 10
908.1433938975003
 20
617.0945557455876
 30
0.0
 10
921.8375472493728
 20
617.1364306040393
 30
0.0
  0
LINE
  5
141
330
1F
100
AcDbEntity
  8
0
  6
Continuous
 62
     7
370
    25
100
AcDbLine
 10
556.8375526138
 20
624.5205073186
 30
0.0
 11
556.8375526138
 21
617.136430604
 31
0.0
  0
ELLIPSE
  5
142
330
1F
100
AcDbEntity
  8
0
  6
Continuous
 62
     7
370
    25
100
AcDbEllipse
 10
761.8375517172
 20
623.149824071
 30
0.0
 11
2.0
 21
0.0
 31
0.0
210
0.0
220
0.0
230
1.0
 40
0.0517241379
 41
0.0
 42
3.141592653589791
  0
LINE
  5
143
330
1F
100
AcDbEntity
  8
0
  6
Continuous
 62
     7
370
    25
100
AcDbLine
 10
759.8375542231
 20
623.1498240061
 30
0.0
 11
759.8375542231
 21
622.2705064841
 31
0.0
  0
ELLIPSE
  5
144
330
1F
100
AcDbEntity
  8
0
  6
Continuous
 62
     7
370
    25
100
AcDbEllipse
 10
761.8375517172
 20
622.2705137261
 30
0.0
 11
2.0
 21
0.0
 31
0.0
210
0.0
220
0.0
230
1.0
 40
0.0517241379
 41
3.141592653591164
 42
6.283185307179586
  0
LINE
  5
145
330
1F
100
AcDbEntity
  8
0
  6
Continuous
 62
     7
370
    25
100
AcDbLine
 10
763.8375548788
 20
622.2705064841
 30
0.0
 11
763.8375548788
 21
623.1498240061
 31
0.0
  0
ELLIPSE
  5
146
330
1F
100
AcDbEntity
  8
0
  6
Continuous
 62
     7
370
    25
100
AcDbEllipse
 10
753.8375517172
 20
623.149824071
 30
0.0
 11
2.0
 21
0.0
 31
0.0
210
0.0
220
0.0
230
1.0
 40
0.0517241379
 41
0.0
 42
3.141592653589791
  0
LINE
  5
147
330
1F
100
AcDbEntity
  8
0
  6
Continuous
 62
     7
370
    25
100
AcDbLine
 10
751.8375529118
 20
623.1498240061
 30
0.0
 11
751.8375529118
 21
622.2705064841
 31
0.0
  0
ELLIPSE
  5
148
330
1F
100
AcDbEntity
  8
0
  6
Continuous
 62
     7
370
    25
100
AcDbEllipse
 10
753.8375517172
 20
622.2705137261
 30
0.0
 11
2.0
 21
0.0
 31
0.0
210
0.0
220
0.0
230
1.0
 40
0.0517241379
 41
3.141592653591164
 42
6.283185307179586
  0
LINE
  5
149
330
1F
100
AcDbEntity
  8
0
  6
Continuous
 62
     7
370
    25
100
AcDbLine
 10
755.8375535675
 20
622.2705064841
 30
0.0
 11
755.8375535675
 21
623.1498240061
 31
0.0
  0
ELLIPSE
  5
14A
330
1F
100
AcDbEntity
  8
0
  6
Continuous
 62
     7
370
    25
100
AcDbEllipse
 10
745.8375517172
 20
623.149824071
 30
0.0
 11
2.0
 21
0.0
 31
0.0
210
0.0
220
0.0
230
1.0
 40
0.0517241379
 41
0.0
 42
3.141592653589791
  0
LINE
  5
14B
330
1F
100
AcDbEntity
  8
0
  6
Continuous
 62
     7
370
    25
100
AcDbLine
 10
743.8375516005
 20
623.1498240061
 30
0.0
 11
743.8375516005
 21
622.2705064841
 31
0.0
  0
ELLIPSE
  5
14C
330
1F
100
AcDbEntity
  8
0
  6
Continuous
 62
     7
370
    25
100
AcDbEllipse
 10
745.8375517172
 20
622.2705137261
 30
0.0
 11
2.0
 21
0.0
 31
0.0
210
0.0
220
0.0
230
1.0
 40
0.0517241379
 41
3.141592653591164
 42
6.283185307179586
  0
LINE
  5
14D
330
1F
100
AcDbEntity
  8
0
  6
Continuous
 62
     7
370
    25
100
AcDbLine
 10
747.8375522562
 20
622.2705064841
 30
0.0
 11
747.8375522562
 21
623.1498240061
 31
0.0
  0
ELLIPSE
  5
14E
330
1F
100
AcDbEntity
  8
0
  6
Continuous
 62
     7
370
    25
100
AcDbEllipse
 10
716.8375517172
 20
623.149824071
 30
0.0
 11
2.0
 21
0.0
 31
0.0
210
0.0
220
0.0
230
1.0
 40
0.0517241379
 41
0.0
 42
3.141592653589791
  0
LINE
  5
14F
330
1F
100
AcDbEntity
  8
0
  6
Continuous
 62
     7
370
    25
100
AcDbLine
 10
714.837552435
 20
623.1498240061
 30
0.0
 11
714.837552435
 21
622.2705064841
 31
0.0
  0
ELLIPSE
  5
150
330
1F
100
AcDbEntity
  8
0
  6
Continuous
 62
     7
370
    25
100
AcDbEllipse
 10
716.8375517172
 20
622.2705137261
 30
0.0
 11
2.0
 21
0.0
 31
0.0
210
0.0
220
0.0
230
1.0
 40
0.0517241379
 41
3.141592653591164
 42
6.283185307179586
  0
LINE
  5
151
330
1F
100
AcDbEntity
  8
0
  6
Continuous
 62
     7
370
    25
100
AcDbLine
 10
718.8375530906
 20
622.2705064841
 30
0.0
 11
718.8375530906
 21
623.1498240061
 31
0.0
  0
ELLIPSE
  5
152
330
1F
100
AcDbEntity
  8
0
  6
Continuous
 62
     7
370
    25
100
AcDbEllipse
 10
724.8375517172
 20
622.2705137261
 30
0.0
 11
2.0
 21
0.0
 31
0.0
210
0.0
220
0.0
230
1.0
 40
0.0517241379
 41
3.141592653591164
 42
6.283185307179586
  0
LINE
  5
153
330
1F
100
AcDbEntity
  8
0
  6
Continuous
 62
     7
370
    25
100
AcDbLine
 10
726.8375506766
 20
622.2705064841
 30
0.0
 11
726.8375506766
 21
623.1498240061
 31
0.0
  0
ELLIPSE
  5
154
330
1F
100
AcDbEntity
  8
0
  6
Continuous
 62
     7
370
    25
100
AcDbEllipse
 10
724.8375517172
 20
623.149824071
 30
0.0
 11
2.0
 21
0.0
 31
0.0
210
0.0
220
0.0
230
1.0
 40
0.0517241379
 41
0.0
 42
3.141592653589791
  0
LINE
  5
155
330
1F
100
AcDbEntity
  8
0
  6
Continuous
 62
     7
370
    25
100
AcDbLine
 10
722.837550021
 20
623.1498240061
 30
0.0
 11
722.837550021
 21
622.2705064841
 31
0.0
  0
ELLIPSE
  5
156
330
1F
100
AcDbEntity
  8
0
  6
Continuous
 62
     7
370
    25
100
AcDbEllipse
 10
732.8375517172
 20
623.149824071
 30
0.0
 11
2.0
 21
0.0
 31
0.0
210
0.0
220
0.0
230
1.0
 40
0.0517241379
 41
0.0
 42
3.141592653589791
  0
LINE
  5
157
330
1F
100
AcDbEntity
  8
0
  6
Continuous
 62
     7
370
    25
100
AcDbLine
 10
730.8375513323
 20
623.1498240061
 30
0.0
 11
730.8375513323
 21
622.2705064841
 31
0.0
  0
ELLIPSE
  5
158
330
1F
100
AcDbEntity
  8
0
  6
Continuous
 62
     7
370
    25
100
AcDbEllipse
 10
732.8375517172
 20
622.2705137261
 30
0.0
 11
2.0
 21
0.0
 31
0.0
210
0.0
220
0.0
230
1.0
 40
0.0517241379
 41
3.141592653591164
 42
6.283185307179586
  0
LINE
  5
159
330
1F
100
AcDbEntity
  8
0
  6
Continuous
 62
     7
370
    25
100
AcDbLine
 10
734.8375482627
 20
622.2705064841
 30
0.0
 11
734.8375482627
 21
623.1498240061
 31
0.0
  0
ELLIPSE
  5
15A
330
1F
100
AcDbEntity
  8
0
  6
Continuous
 62
     7
370
    25
100
AcDbEllipse
 10
739.3375517172
 20
622.7101688985
 30
0.0
 11
3.100000000000023
 21
0.0
 31
0.0
210
0.0
220
0.0
230
1.0
 40
0.0517241379
 41
0.0
 42
6.283185307179586
  0
SPLINE
  5
15B
330
1F
100
AcDbEntity
  8
0
  6
Continuous
 62
     7
370
    25
100
AcDbSpline
210
0.0
220
0.0
230
1.0
 70
     8
 71
     3
 72
    21
 73
    17
 74
     0
 42
0.000000001
 43
0.00000001
 40
0.0
 40
0.0
 40
0.0
 40
0.0
 40
0.0711452194879072
 40
0.1425154468100074
 40
0.2136606460478203
 40
0.2848066232153262
 40
0.3561777293141632
 40
0.4273236918708785
 40
0.4984590615831678
 40
0.5698192968356053
 40
0.6409548123546097
 40
0.7121650809214582
 40
0.7836010678673263
 40
0.8548114859311943
 40
0.9274057169248808
 40
1.0
 40
1.0
 40
1.0
 40
1.0
 10
504.1851787038406
 20
564.5205123849498
 30
0.0
 10
504.2494219157612
 20
566.4815773321086
 30
0.0
 10
504.378111518763
 20
570.409909399666
 30
0.0
 10
505.4003412695582
 20
576.2255726821722
 30
0.0
 10
507.0103667487838
 20
581.8978535470022
 30
0.0
 10
509.2717287767221
 20
587.3475438695226
 30
0.0
 10
512.1171495058359
 20
592.5137758673228
 30
0.0
 10
515.5168454295695
 20
597.3345066053371
 30
0.0
 10
519.4451753657825
 20
601.7344172154543
 30
0.0
 10
523.8343846015936
 20
605.6728478741529
 30
0.0
 10
528.6338150009258
 20
609.1044645414756
 30
0.0
 10
533.7961206464199
 20
611.9642492913133
 30
0.0
 10
539.2438758837957
 20
614.2402337707125
 30
0.0
 10
544.9469912324081
 20
615.8968560019772
 30
0.0
 10
550.8354943285101
 20
616.942869746701
 30
0.0
 10
554.8368660402454
 20
617.0719103028304
 30
0.0
 10
556.8375526137909
 20
617.1364306040394
 30
0.0
  0
LINE
  5
15C
330
1F
100
AcDbEntity
  8
0
  6
Continuous
 62
     7
370
    25
100
AcDbLine
 10
496.8375502296
 20
564.5205123849
 30
0.0
 11
504.1851787038
 21
564.5205123849
 31
0.0
  0
SPLINE
  5
15D
330
1F
100
AcDbEntity
  8
0
  6
Continuous
 62
     7
370
    25
100
AcDbSpline
210
0.0
220
0.0
230
1.0
 70
     8
 71
     3
 72
    11
 73
     7
 74
     0
 42
0.000000001
 43
0.00000001
 40
0.0
 40
0.0
 40
0.0
 40
0.0
 40
0.2498326549910822
 40
0.4996650463924782
 40
0.7498317320262703
 40
0.9999999999999999
 40
0.9999999999999999
 40
0.9999999999999999
 40
0.9999999999999999
 10
974.4899360604843
 20
564.5205123849498
 30
0.0
 10
974.47412369209
 20
546.1955964515141
 30
0.0
 10
974.4424989719843
 20
509.5457839186199
 30
0.0
 10
974.4629710862773
 20
454.5377664481636
 30
0.0
 10
974.5294974339936
 20
399.5193986526877
 30
0.0
 10
974.6157758726592
 20
362.853518888675
 30
0.0
 10
974.6589152284225
 20
344.5205210276233
 30
0.0
  0
LINE
  5
15E
330
1F
100
AcDbEntity
  8
0
  6
Continuous
 62
     7
370
    25
100
AcDbLine
 10
981.8375496336
 20
564.5205123849
 30
0.0
 11
974.4899360605
 21
564.5205123849
 31
0.0
  0
SPLINE
  5
15F
330
1F
100
AcDbEntity
  8
0
  6
Continuous
 62
     7
370
    25
100
AcDbSpline
210
0.0
220
0.0
230
1.0
 70
     8
 71
     3
 72
    21
 73
    17
 74
     0
 42
0.000000001
 43
0.00000001
 40
0.0
 40
0.0
 40
0.0
 40
0.0
 40
0.0714197335944111
 40
0.1430672973387202
 40
0.2144868892290574
 40
0.2859146086356233
 40
0.3575700485883212
 40
0.4289976544217142
 40
0.500325168372528
 40
0.5718796671095259
 40
0.6432072486475602
 40
0.7144097933542303
 40
0.7858380413596217
 40
0.8570405980366202
 40
0.9285202948225363
 40
1.0
 40
1.0
 40
1.0
 40
1.0
 10
921.8375472493728
 20
617.1364306040393
 30
0.0
 10
923.8058539703321
 20
617.0730791309536
 30
0.0
 10
927.7487463437548
 20
616.9461740925187
 30
0.0
 10
933.5860308709822
 20
615.9204589188491
 30
0.0
 10
939.2790691159463
 20
614.3025670909726
 30
0.0
 10
944.7477939344591
 20
612.0283222908298
 30
0.0
 10
949.9306658492533
 20
609.1656836169185
 30
0.0
 10
954.7627535716737
 20
605.7462558519499
 30
0.0
 10
959.1684340363697
 20
601.7968005805299
 30
0.0
 10
963.1074986752695
 20
597.3864832082362
 30
0.0
 10
966.5329455318513
 20
592.5692763074402
 30
0.0
 10
969.3810128656474
 20
587.3942538196726
 30
0.0
 10
971.6420142368869
 20
581.9401337921611
 30
0.0
 10
973.2745167916115
 20
576.261430498042
 30
0.0
 10
974.2982263634103
 20
570.4313333069164
 30
0.0
 10
974.4260328256256
 20
566.4907861027071
 30
0.0
 10
974.4899360604843
 20
564.5205123849498
 30
0.0
  0
LINE
  5
160
330
1F
100
AcDbEntity
  8
0
  6
Continuous
 62
     7
370
    25
100
AcDbLine
 10
496.8375502296
 20
344.5205210276
 30
0.0
 11
504.0161995359
 21
344.5205210276
 31
0.0
  0
SPLINE
  5
161
330
1F
100
AcDbEntity
  8
0
  6
Continuous
 62
     7
370
    25
100
AcDbSpline
210
0.0
220
0.0
230
1.0
 70
     8
 71
     3
 72
    21
 73
    17
 74
     0
 42
0.000000001
 43
0.00000001
 40
0.0
 40
0.0
 40
0.0
 40
0.0
 40
0.0712083862028654
 40
0.1426424012415727
 40
0.2138508198801478
 40
0.2850882010490828
 40
0.356551713294472
 40
0.427789179936782
 40
0.4989015629646432
 40
0.5702389445713358
 40
0.6413513704250874
 40
0.7123738967898784
 40
0.7836203566996016
 40
0.8546429174472968
 40
0.9273214675501097
 40
1.0
 40
1.0
 40
1.0
 40
1.0
 10
556.8375526137909
 20
291.7073933907138
 30
0.0
 10
554.8681005665147
 20
291.7706882417805
 30
0.0
 10
550.9229561230882
 20
291.8974784981509
 30
0.0
 10
545.0818275098384
 20
292.921340783931
 30
0.0
 10
539.3836872242413
 20
294.5364432468039
 30
0.0
 10
533.9082896058686
 20
296.8070836812851
 30
0.0
 10
528.7171570983564
 20
299.6658854767569
 30
0.0
 10
523.876156771089
 20
303.0807537920606
 30
0.0
 10
519.4604759740236
 20
307.0248384406188
 30
0.0
 10
515.5101276940204
 20
311.4292043975935
 30
0.0
 10
512.0709140796416
 20
316.2414231875238
 30
0.0
 10
509.2065970156386
 20
321.4129226355651
 30
0.0
 10
506.9274678460503
 20
326.8655931050116
 30
0.0
 10
505.26475441525
 20
332.5809002697659
 30
0.0
 10
504.2122032224381
 20
338.4898234763717
 30
0.0
 10
504.0815340927912
 20
342.5102886732948
 30
0.0
 10
504.0161995359024
 20
344.5205210276233
 30
0.0
  0
SPLINE
  5
162
330
1F
100
AcDbEntity
  8
0
  6
Continuous
 62
     7
370
    25
100
AcDbSpline
210
0.0
220
0.0
230
1.0
 70
     8
 71
     3
 72
    11
 73
     7
 74
     0
 42
0.000000001
 43
0.00000001
 40
0.0
 40
0.0
 40
0.0
 40
0.0
 40
0.2498388530370494
 40
0.4996761439253343
 40
0.7498379347945396
 40
1.0
 40
1.0
 40
1.0
 40
1.0
 10
504.0161995359024
 20
344.5205210276233
 30
0.0
 10
504.0592830302912
 20
362.8293722679431
 30
0.0
 10
504.1454497496839
 20
399.4469602701938
 30
0.0
 10
504.2120678310193
 20
454.4411058645089
 30
0.0
 10
504.2326392602139
 20
509.473288791536
 30
0.0
 10
504.2009988950814
 20
546.1714311464025
 30
0.0
 10
504.1851787038406
 20
564.5205123849498
 30
0.0
  0
ELLIPSE
  5
163
330
1F
100
AcDbEntity
  8
0
  6
Continuous
 62
     7
370
    25
100
AcDbEllipse
 10
732.8375517172
 20
623.0715831659
 30
0.0
 11
2.0
 21
0.0
 31
0.0
210
0.0
220
0.0
230
1.0
 40
0.0517241379
 41
3.141592653589791
 42
6.283185307179586
  0
ELLIPSE
  5
164
330
1F
100
AcDbEntity
  8
0
  6
Continuous
 62
     7
370
    25
100
AcDbEllipse
 10
716.8375517172
 20
623.0715831659
 30
0.0
 11
2.0
 21
0.0
 31
0.0
210
0.0
220
0.0
230
1.0
 40
0.0517241379
 41
3.141592653589791
 42
6.283185307179586
  0
ELLIPSE
  5
165
330
1F
100
AcDbEntity
  8
0
  6
Continuous
 62
     7
370
    25
100
AcDbEllipse
 10
753.8375517172
 20
623.0715831659
 30
0.0
 11
2.0
 21
0.0
 31
0.0
210
0.0
220
0.0
230
1.0
 40
0.0517241379
 41
3.141592653589791
 42
6.283185307179586
  0
ELLIPSE
  5
166
330
1F
100
AcDbEntity
  8
0
  6
Continuous
 62
     7
370
    25
100
AcDbEllipse
 10
761.8375517172
 20
623.0715831659
 30
0.0
 11
2.0
 21
0.0
 31
0.0
210
0.0
220
0.0
230
1.0
 40
0.0517241379
 41
3.141592653589791
 42
6.283185307179586
  0
ELLIPSE
  5
167
330
1F
100
AcDbEntity
  8
0
  6
Continuous
 62
     7
370
    25
100
AcDbEllipse
 10
724.8375517172
 20
623.0715831659
 30
0.0
 11
2.0
 21
0.0
 31
0.0
210
0.0
220
0.0
230
1.0
 40
0.0517241379
 41
3.141592653589791
 42
6.283185307179586
  0
ELLIPSE
  5
168
330
1F
100
AcDbEntity
  8
0
  6
Continuous
 62
     7
370
    25
100
AcDbEllipse
 10
745.8375517172
 20
623.0715831659
 30
0.0
 11
2.0
 21
0.0
 31
0.0
210
0.0
220
0.0
230
1.0
 40
0.0517241379
 41
3.141592653589791
 42
6.283185307179586
  0
SPLINE
  5
169
330
1F
100
AcDbEntity
  8
0
  6
Continuous
 62
     7
370
    25
100
AcDbSpline
210
0.0
220
0.0
230
1.0
 70
     8
 71
     3
 72
    14
 73
    10
 74
     0
 42
0.000000001
 43
0.00000001
 40
0.0
 40
0.0
 40
0.0
 40
0.0
 40
0.1548200616364321
 40
0.3096860427845003
 40
0.424633342948129
 40
0.539586686707789
 40
0.6545338338267427
 40
0.8272659388313797
 40
1.0
 40
1.0
 40
1.0
 40
1.0
 10
554.780544168528
 20
324.7123180456745
 30
0.0
 10
573.8130675981649
 20
324.7417383309979
 30
0.0
 10
611.883759489303
 20
324.8005876276789
 30
0.0
 10
664.1377883121065
 20
324.8143996252877
 30
0.0
 10
711.5014231825605
 20
324.8165485483236
 30
0.0
 10
753.9581433324903
 20
324.815721711086
 30
0.0
 10
803.5243056650659
 20
324.8149336145073
 30
0.0
 10
860.1884497250356
 20
324.8062641842454
 30
0.0
 10
902.6591118433461
 20
324.7436335434111
 30
0.0
 10
923.8945631452164
 20
324.7123180456745
 30
0.0
  0
LWPOLYLINE
  5
16A
330
1F
100
AcDbEntity
  8
0
  6
Continuous
 62
     7
370
    25
100
AcDbPolyline
 90
       15
 70
   128
 43
0.0
 10
923.8945631452
 20
324.7123180457
 10
923.8602010675
 20
321.0765092202
 10
923.8037852712
 20
317.5016759463
 10
923.7258820005
 20
314.026829464
 10
923.627385325
 20
310.6899379321
 10
923.5093085237
 20
307.5273899861
 10
923.3730225034
 20
304.5737563201
 10
923.2199577756
 20
301.8612532445
 10
923.0517832704
 20
299.4195191689
 10
922.870376534
 20
297.2751973696
 10
922.6776747175
 20
295.451712472
 10
922.4757937856
 20
293.9689575263
 10
922.2669689127
 20
292.8431300946
 10
922.0534352727
 20
292.086523635
 10
921.8375472494
 20
291.7073933907
  0
LWPOLYLINE
  5
16B
330
1F
100
AcDbEntity
  8
0
  6
Continuous
 62
     7
370
    25
100
AcDbPolyline
 90
       15
 70
   128
 43
0.0
 10
554.7805441685
 20
324.7123180457
 10
554.8148913451
 20
321.0765092202
 10
554.8713145919
 20
317.5016759463
 10
554.9492104121
 20
314.026829464
 10
555.0477294393
 20
310.6899379321
 10
555.1657838889
 20
307.5273899861
 10
555.3020848103
 20
304.5737563201
 10
555.4551569887
 20
301.8612532445
 10
555.6233240433
 20
299.4195191689
 10
555.8047382303
 20
297.2751973696
 10
555.9974400468
 20
295.451712472
 10
556.1993060775
 20
293.9689575263
 10
556.4081458517
 20
292.8431300946
 10
556.621672041
 20
292.086523635
 10
556.8375526138
 20
291.7073933907
  0
LWPOLYLINE
  5
16C
330
1F
100
AcDbEntity
  8
0
  6
Continuous
 62
     7
370
    25
100
AcDbPolyline
 90
       15
 70
   128
 43
0.0
 10
941.9602541395
 20
342.7763848134
 10
945.5708054967
 20
342.8068874903
 10
949.1180865236
 20
342.8558676072
 10
952.5638310381
 20
342.9228185244
 10
955.8708755441
 20
343.006995184
 10
959.0035168596
 20
343.1075035163
 10
961.9280187555
 20
343.2232408352
 10
964.6127609678
 20
343.3529852458
 10
967.0288650461
 20
343.4953211375
 10
969.1501943536
 20
343.6487136908
 10
970.9539203115
 20
343.8115088769
 10
972.4205522008
 20
343.9819632598
 10
973.5342947908
 20
344.1582141944
 10
974.2830781408
 20
344.3383841344
 10
974.6589152284
 20
344.5205210276
  0
SPLINE
  5
16D
330
1F
100
AcDbEntity
  8
0
  6
Continuous
 62
     7
370
    25
100
AcDbSpline
210
0.0
220
0.0
230
1.0
 70
     8
 71
     3
 72
    13
 73
     9
 74
     0
 42
0.000000001
 43
0.00000001
 40
0.0
 40
0.0
 40
0.0
 40
0.0
 40
0.1572492946943891
 40
0.3145163436388708
 40
0.4858324196232646
 40
0.6571482403681388
 40
0.8285740467947739
 40
1.0
 40
1.0
 40
1.0
 40
1.0
 10
941.960254139479
 20
342.776384813367
 30
0.0
 10
941.9454902769662
 20
354.4303845136114
 30
0.0
 10
941.9159608850247
 20
377.7396997103055
 30
0.0
 10
941.893584440951
 20
413.76578052069
 30
0.0
 10
941.8827032214891
 20
450.8461327333143
 30
0.0
 10
941.8806669479135
 20
488.9847657326092
 30
0.0
 10
941.880149218791
 20
527.1339642631369
 30
0.0
 10
941.8855111547955
 20
552.5673199123057
 30
0.0
 10
941.8881921239456
 20
565.284003181039
 30
0.0
  0
LWPOLYLINE
  5
16E
330
1F
100
AcDbEntity
  8
0
  6
Continuous
 62
     7
370
    25
100
AcDbPolyline
 90
       15
 70
   128
 43
0.0
 10
974.4899360605
 20
564.5205123849
 10
974.1150228448
 20
564.600114388
 10
973.368564076
 20
564.6788595744
 10
972.2585467764
 20
564.7558985777
 10
970.7969216772
 20
564.8304118343
 10
968.9994244047
 20
564.9015946813
 10
966.8853072591
 20
564.968679709
 10
964.4773094125
 20
565.0309516616
 10
961.801329083
 20
565.087739987
 10
958.8860957094
 20
565.1384337373
 10
955.7629613348
 20
565.1824890204
 10
952.4654535719
 20
565.219428999
 10
949.0290371843
 20
565.2488587924
 10
945.4906074472
 20
565.2704580255
 10
941.8881921239
 20
565.284003181
  0
LWPOLYLINE
  5
16F
330
1F
100
AcDbEntity
  8
0
  6
Continuous
 62
     7
370
    25
100
AcDbPolyline
 90
       15
 70
   128
 43
0.0
 10
504.1851787038
 20
564.5205123849
 10
504.5600770183
 20
564.600114388
 10
505.3065506883
 20
564.6788595744
 10
506.4165530868
 20
564.7558985777
 10
507.8781632848
 20
564.8304118343
 10
509.6756903596
 20
564.9015946813
 10
511.7898075052
 20
564.968679709
 10
514.1977904506
 20
565.0309516616
 10
516.8737707801
 20
565.087739987
 10
519.7890041538
 20
565.1384337373
 10
522.9121385284
 20
565.1824890204
 10
526.2096462913
 20
565.219428999
 10
529.64607758
 20
565.2488587924
 10
533.1845073171
 20
565.2704580255
 10
536.7869077392
 20
565.284003181
  0
SPLINE
  5
170
330
1F
100
AcDbEntity
  8
0
  6
Continuous
 62
     7
370
    25
100
AcDbSpline
210
0.0
220
0.0
230
1.0
 70
     8
 71
     3
 72
    13
 73
     9
 74
     0
 42
0.000000001
 43
0.00000001
 40
0.0
 40
0.0
 40
0.0
 40
0.0
 40
0.1572497220402489
 40
0.3145207218917712
 40
0.485838617122486
 40
0.6571567279006916
 40
0.8285782108101234
 40
0.9999999999999999
 40
0.9999999999999999
 40
0.9999999999999999
 40
0.9999999999999999
 10
536.7869077392181
 20
565.284003181039
 30
0.0
 10
536.7893456946468
 20
553.619027943238
 30
0.0
 10
536.7942219353896
 20
530.2874990537705
 30
0.0
 10
536.794587821431
 20
494.2406289826818
 30
0.0
 10
536.7932135141135
 20
457.1511159369996
 30
0.0
 10
536.7838259641727
 20
419.0188725322571
 30
0.0
 10
536.7624196028693
 20
380.8899421732345
 30
0.0
 10
536.7307036928574
 20
355.4809114997435
 30
0.0
 10
536.7148457236847
 20
342.776384813367
 30
0.0
  0
LWPOLYLINE
  5
171
330
1F
100
AcDbEntity
  8
0
  6
Continuous
 62
     7
370
    25
100
AcDbPolyline
 90
       15
 70
   128
 43
0.0
 10
536.7148457237
 20
342.7763848134
 10
533.1042943664
 20
342.8068874903
 10
529.5570282407
 20
342.8558676072
 10
526.1112837263
 20
342.9228185244
 10
522.8042392202
 20
343.006995184
 10
519.6715830036
 20
343.1075035163
 10
516.7470960088
 20
343.2232408352
 10
514.0623239942
 20
343.3529852458
 10
511.6462348171
 20
343.4953211375
 10
509.5248906084
 20
343.6487136908
 10
507.7211795517
 20
343.8115088769
 10
506.2545476623
 20
343.9819632598
 10
505.1408199735
 20
344.1582141944
 10
504.3920068212
 20
344.3383841344
 10
504.0161995359
 20
344.5205210276
  0
LWPOLYLINE
  5
172
330
1F
100
AcDbEntity
  8
0
  6
Continuous
 62
     7
370
    25
100
AcDbPolyline
 90
       15
 70
   128
 43
0.0
 10
921.8375472494
 20
617.136430604
 10
922.0690516897
 20
616.7465417214
 10
922.2979037233
 20
615.9649162121
 10
922.5215403505
 20
614.8004351683
 10
922.7374283739
 20
613.2663010188
 10
922.943124003
 20
611.3798736163
 10
923.1363026567
 20
609.1625584789
 10
923.3147291608
 20
606.6394715138
 10
923.4764365621
 20
603.8392080494
 10
923.6195771165
 20
600.7935075589
 10
923.7425116964
 20
597.5368885823
 10
923.8438395925
 20
594.1062612959
 10
923.922458119
 20
590.5405028291
 10
923.9774136015
 20
586.8800251313
 10
924.0081397958
 20
583.1663204857
  0
SPLINE
  5
173
330
1F
100
AcDbEntity
  8
0
  6
Continuous
 62
     7
370
    25
100
AcDbSpline
210
0.0
220
0.0
230
1.0
 70
     8
 71
     3
 72
    15
 73
    11
 74
     0
 42
0.000000001
 43
0.00000001
 40
0.0
 40
0.0
 40
0.0
 40
0.0
 40
0.1125358111843005
 40
0.2250712993676044
 40
0.3376818259614472
 40
0.4502906878539282
 40
0.5876254312662552
 40
0.7249638190888217
 40
0.862481417604777
 40
1.0
 40
1.0
 40
1.0
 40
1.0
 10
924.0081397958359
 20
583.1663204856502
 30
0.0
 10
910.1672611336394
 20
583.1413884374161
 30
0.0
 10
882.4855435354241
 20
583.0915244125082
 30
0.0
 10
840.9213794139566
 20
583.0735856618924
 30
0.0
 10
799.329994699814
 20
583.1229792621142
 30
0.0
 10
754.666527329281
 20
583.2116987181681
 30
0.0
 10
706.947529988068
 20
583.1775091885461
 30
0.0
 10
656.1772946136923
 20
583.0795905332036
 30
0.0
 10
605.4096934995345
 20
583.0782894888106
 30
0.0
 10
571.5812399155378
 20
583.136976750057
 30
0.0
 10
554.6669526167473
 20
583.1663204856502
 30
0.0
  0
LWPOLYLINE
  5
174
330
1F
100
AcDbEntity
  8
0
  6
Continuous
 62
     7
370
    25
100
AcDbPolyline
 90
       15
 70
   128
 43
0.0
 10
556.8375526138
 20
617.136430604
 10
556.6060630746
 20
616.7465417214
 10
556.3772035904
 20
615.9649162121
 10
556.1535595127
 20
614.8004351683
 10
555.9376640387
 20
613.2663010188
 10
555.7319758602
 20
611.3798736163
 10
555.5388121076
 20
609.1625584789
 10
555.3603632517
 20
606.6394715138
 10
555.198663301
 20
603.8392080494
 10
555.0555301972
 20
600.7935075589
 10
554.9326030679
 20
597.5368885823
 10
554.8312602707
 20
594.1062612959
 10
554.7526491948
 20
590.5405028291
 10
554.6976788111
 20
586.8800251313
 10
554.6669526167
 20
583.1663204857
  0
SPLINE
  5
175
330
1F
100
AcDbEntity
  8
0
  6
Continuous
 62
     7
370
    25
100
AcDbSpline
210
0.0
220
0.0
230
1.0
 70
     8
 71
     3
 72
    16
 73
    12
 74
     0
 42
0.000000001
 43
0.00000001
 40
0.0
 40
0.0
 40
0.0
 40
0.0
 40
0.1458328340811872
 40
0.2524914436104685
 40
0.3591498500209196
 40
0.4658760514068952
 40
0.5726019098822909
 40
0.6794796478321586
 40
0.7863575095976229
 40
0.8931786086059299
 40
0.9999999999999999
 40
0.9999999999999999
 40
0.9999999999999999
 40
0.9999999999999999
 10
923.8945631452164
 20
324.7123180456745
 30
0.0
 10
925.2749333395108
 20
324.799519142261
 30
0.0
 10
927.664872925271
 20
324.9504970129186
 30
0.0
 10
930.9066013273595
 20
326.0383301471769
 30
0.0
 10
933.604689532089
 20
327.4281739281605
 30
0.0
 10
936.0260497485823
 20
329.2693221123095
 30
0.0
 10
938.1148463691408
 20
331.4808434129095
 30
0.0
 10
939.7988926529363
 20
334.0184372637832
 30
0.0
 10
941.0343875657567
 20
336.7974244350916
 30
0.0
 10
941.8140766762531
 20
339.7466042392085
 30
0.0
 10
941.911528273947
 20
341.7664570338742
 30
0.0
 10
941.960254139479
 20
342.776384813367
 30
0.0
  0
SPLINE
  5
176
330
1F
100
AcDbEntity
  8
0
  6
Continuous
 62
     7
370
    25
100
AcDbSpline
210
0.0
220
0.0
230
1.0
 70
     8
 71
     3
 72
    16
 73
    12
 74
     0
 42
0.000000001
 43
0.00000001
 40
0.0
 40
0.0
 40
0.0
 40
0.0
 40
0.1452207257275352
 40
0.2518911198945128
 40
0.3585612932773011
 40
0.4653738732652108
 40
0.5721862892151967
 40
0.6791767187218488
 40
0.7861677163258144
 40
0.8930834767793111
 40
0.9999999999999999
 40
0.9999999999999999
 40
0.9999999999999999
 40
0.9999999999999999
 10
536.7148457236847
 20
342.776384813367
 30
0.0
 10
536.8018940689526
 20
341.4012048119212
 30
0.0
 10
536.9528828831501
 20
339.0159004493012
 30
0.0
 10
538.0370596050386
 20
335.7774839848465
 30
0.0
 10
539.4258303766426
 20
333.0766955799458
 30
0.0
 10
541.2666515536823
 20
330.6523476705424
 30
0.0
 10
543.478984906375
 20
328.5605403883823
 30
0.0
 10
546.0179737008126
 20
326.8741978865609
 30
0.0
 10
548.7986728946992
 20
325.637418109257
 30
0.0
 10
551.7494784334367
 20
324.8575125131349
 30
0.0
 10
553.7701865207891
 20
324.7607163165894
 30
0.0
 10
554.780544168528
 20
324.7123180456745
 30
0.0
  0
SPLINE
  5
177
330
1F
100
AcDbEntity
  8
0
  6
Continuous
 62
     7
370
    25
100
AcDbSpline
210
0.0
220
0.0
230
1.0
 70
     8
 71
     3
 72
    16
 73
    12
 74
     0
 42
0.000000001
 43
0.00000001
 40
0.0
 40
0.0
 40
0.0
 40
0.0
 40
0.1429197913958146
 40
0.2499123334880648
 40
0.3569053184790316
 40
0.4640622471781042
 40
0.5712189301623497
 40
0.6784659126217514
 40
0.7857122146492149
 40
0.8928563022435104
 40
1.0
 40
1.0
 40
1.0
 40
1.0
 10
941.8881921239456
 20
565.284003181039
 30
0.0
 10
941.803265262652
 20
566.624589865453
 30
0.0
 10
941.6547604973258
 20
568.9687658768571
 30
0.0
 10
940.595607847699
 20
572.1637365076149
 30
0.0
 10
939.2237456638009
 20
574.8493405339466
 30
0.0
 10
937.4020026797057
 20
577.2605036971918
 30
0.0
 10
935.2108228258264
 20
579.3407551747725
 30
0.0
 10
932.6950071990487
 20
581.0175203009501
 30
0.0
 10
929.939270560757
 20
582.2470890564526
 30
0.0
 10
927.0139597460874
 20
583.022434032149
 30
0.0
 10
925.0100785640825
 20
583.1183583926525
 30
0.0
 10
924.0081397958359
 20
583.1663204856502
 30
0.0
  0
SPLINE
  5
178
330
1F
100
AcDbEntity
  8
0
  6
Continuous
 62
     7
370
    25
100
AcDbSpline
210
0.0
220
0.0
230
1.0
 70
     8
 71
     3
 72
    16
 73
    12
 74
     0
 42
0.000000001
 43
0.00000001
 40
0.0
 40
0.0
 40
0.0
 40
0.0
 40
0.1448924011400723
 40
0.2517864196260491
 40
0.358680767574534
 40
0.4655329272207595
 40
0.5723853957809237
 40
0.6792899567862303
 40
0.7861946770519681
 40
0.893097429240896
 40
1.0
 40
1.0
 40
1.0
 40
1.0
 10
554.6669526167473
 20
583.1663204856502
 30
0.0
 10
553.3098928366408
 20
583.0812818202542
 30
0.0
 10
550.9516654861173
 20
582.9335060851475
 30
0.0
 10
547.747696102955
 20
581.8622708922811
 30
0.0
 10
545.0727098457818
 20
580.4865634605227
 30
0.0
 10
542.6729018866787
 20
578.6632304950101
 30
0.0
 10
540.6037407860449
 20
576.4736246204394
 30
0.0
 10
538.935200340343
 20
573.961328898917
 30
0.0
 10
537.7099861372876
 20
571.2096058067135
 30
0.0
 10
536.9350912157543
 20
568.2878222067134
 30
0.0
 10
536.8363022034534
 20
566.2852756231603
 30
0.0
 10
536.7869077392181
 20
565.284003181039
 30
0.0
  0
CIRCLE
  5
179
330
1F
100
AcDbEntity
  8
0
  6
Continuous
 62
     7
370
    25
100
AcDbCircle
 10
739.3375517172
 20
499.5205137261
 30
0.0
 40
69.99999999999994
  0
CIRCLE
  5
17A
330
1F
100
AcDbEntity
  8
0
  6
Continuous
 62
     7
370
    25
100
AcDbCircle
 10
739.3375517172
 20
499.5205137261
 30
0.0
 40
66.34098840457972
  0
CIRCLE
  5
17B
330
1F
100
AcDbEntity
  8
0
  6
Continuous
 62
     7
370
    25
100
AcDbCircle
 10
739.3375517172
 20
499.5205137261
 30
0.0
 40
65.66922975937973
  0
CIRCLE
  5
17C
330
1F
100
AcDbEntity
  8
0
  6
Continuous
 62
     7
370
    25
100
AcDbCircle
 10
739.3375517172
 20
499.5205137261
 30
0.0
 40
58.61177143234619
  0
CIRCLE
  5
17D
330
1F
100
AcDbEntity
  8
0
  6
Continuous
 62
     7
370
    25
100
AcDbCircle
 10
739.3375517172
 20
499.5205137261
 30
0.0
 40
57.50000000000006
  0
LINE
  5
17E
330
1F
100
AcDbEntity
  8
0
  6
Continuous
 62
     7
370
    25
100
AcDbLine
 10
488.6525062986
 20
260.1896642275
 30
0.0
 11
990.0226084657
 21
260.1896642275
 31
0.0
  0
LINE
  5
17F
330
1F
100
AcDbEntity
  8
0
  6
Continuous
 62
     7
370
    25
100
AcDbLine
 10
990.0226084657
 20
260.1896642275
 30
0.0
 11
990.0226084657
 21
256.7255614825
 31
0.0
  0
LINE
  5
180
330
1F
100
AcDbEntity
  8
0
  6
Continuous
 62
     7
370
    25
100
AcDbLine
 10
990.0226084657
 20
256.7255614825
 30
0.0
 11
488.6525062986
 21
256.7255614825
 31
0.0
  0
LINE
  5
181
330
1F
100
AcDbEntity
  8
0
  6
Continuous
 62
     7
370
    25
100
AcDbLine
 10
488.6525062986
 20
260.1896642275
 30
0.0
 11
488.6525062986
 21
256.7255614825
 31
0.0
  0
ARC
  5
182
330
1F
100
AcDbEntity
  8
0
  6
Continuous
 62
     7
370
    25
100
AcDbCircle
 10
486.8375517172
 20
717.0349602267
 30
0.0
 40
20.38119784648296
100
AcDbArc
 50
90.0
 51
180.0
  0
LINE
  5
183
330
1F
100
AcDbEntity
  8
0
  6
Continuous
 62
     7
370
    25
100
AcDbLine
 10
466.4563475319
 20
717.034962637
 30
0.0
 11
463.8582704731
 21
717.034962637
 31
0.0
  0
ARC
  5
184
330
1F
100
AcDbEntity
  8
0
  6
Continuous
 62
     7
370
    25
100
AcDbCircle
 10
486.8375517172
 20
717.0349602267
 30
0.0
 40
22.97927405783628
100
AcDbArc
 50
90.0
 51
180.0
  0
LINE
  5
185
330
1F
100
AcDbEntity
  8
0
  6
Continuous
 62
     7
370
    25
100
AcDbLine
 10
486.8375448652
 20
740.0142370291
 30
0.0
 11
486.8375448652
 21
737.4161599703
 31
0.0
  0
LINE
  5
186
330
1F
100
AcDbEntity
  8
0
  6
Continuous
 62
     7
370
    25
100
AcDbLine
 10
466.4563475319
 20
717.034962637
 30
0.0
 11
466.4563475319
 21
267.0349596568
 31
0.0
  0
LINE
  5
187
330
1F
100
AcDbEntity
  8
0
  6
Continuous
 62
     7
370
    25
100
AcDbLine
 10
466.4563475319
 20
267.0349596568
 30
0.0
 11
463.8582704731
 21
267.0349596568
 31
0.0
  0
LINE
  5
188
330
1F
100
AcDbEntity
  8
0
  6
Continuous
 62
     7
370
    25
100
AcDbLine
 10
463.8582704731
 20
267.0349596568
 30
0.0
 11
463.8582704731
 21
717.034962637
 31
0.0
  0
LINE
  5
189
330
1F
100
AcDbEntity
  8
0
  6
Continuous
 62
     7
370
    25
100
AcDbLine
 10
486.8375448652
 20
740.0142370291
 30
0.0
 11
991.8375400968
 21
740.0142370291
 31
0.0
  0
LINE
  5
18A
330
1F
100
AcDbEntity
  8
0
  6
Continuous
 62
     7
370
    25
100
AcDbLine
 10
991.8375400968
 20
740.0142370291
 30
0.0
 11
991.8375400968
 21
737.4161599703
 31
0.0
  0
LINE
  5
18B
330
1F
100
AcDbEntity
  8
0
  6
Continuous
 62
     7
370
    25
100
AcDbLine
 10
991.8375400968
 20
737.4161599703
 30
0.0
 11
486.8375448652
 21
737.4161599703
 31
0.0
  0
ARC
  5
18C
330
1F
100
AcDbEntity
  8
0
  6
Continuous
 62
     7
370
    25
100
AcDbCircle
 10
486.8375517172
 20
267.0349602267
 30
0.0
 40
20.38119784648296
100
AcDbArc
 50
180.0
 51
270.0
  0
LINE
  5
18D
330
1F
100
AcDbEntity
  8
0
  6
Continuous
 62
     7
370
    25
100
AcDbLine
 10
486.8375448652
 20
246.6537623234
 30
0.0
 11
486.8375448652
 21
244.0556852646
 31
0.0
  0
ARC
  5
18E
330
1F
100
AcDbEntity
  8
0
  6
Continuous
 62
     7
370
    25
100
AcDbCircle
 10
486.8375517172
 20
267.0349602267
 30
0.0
 40
22.97927405783628
100
AcDbArc
 50
180.0
 51
270.0
  0
ARC
  5
18F
330
1F
100
AcDbEntity
  8
0
  6
Continuous
 62
     7
370
    25
100
AcDbCircle
 10
991.8375517172
 20
717.0349602267
 30
0.0
 40
22.97927405783628
100
AcDbArc
 50
0.0
 51
90.0
  0
LINE
  5
190
330
1F
100
AcDbEntity
  8
0
  6
Continuous
 62
     7
370
    25
100
AcDbLine
 10
1014.8168293901
 20
717.034962637
 30
0.0
 11
1012.2187523313
 21
717.034962637
 31
0.0
  0
ARC
  5
191
330
1F
100
AcDbEntity
  8
0
  6
Continuous
 62
     7
370
    25
100
AcDbCircle
 10
991.8375517172
 20
717.0349602267
 30
0.0
 40
20.38119784648291
100
AcDbArc
 50
0.0
 51
90.0
  0
ELLIPSE
  5
192
330
1F
100
AcDbEntity
  8
0
  6
Continuous
 62
     7
370
    25
100
AcDbEllipse
 10
492.6939581777
 20
272.8913666872
 30
0.0
 11
12.78019300845381
 21
12.78019300845392
 31
0.0
210
0.0
220
0.0
230
1.0
 40
0.7745966692
 41
2.482534617763378
 42
3.80065068941621
  0
LINE
  5
193
330
1F
100
AcDbEntity
  8
0
  6
Continuous
 62
     7
370
    25
100
AcDbLine
 10
476.5281466909
 20
268.8499210902
 30
0.0
 11
479.992249436
 21
268.8499210902
 31
0.0
  0
ELLIPSE
  5
194
330
1F
100
AcDbEntity
  8
0
  6
Continuous
 62
     7
370
    25
100
AcDbEllipse
 10
492.6939581777
 20
272.8913666872
 30
0.0
 11
10.58930277843319
 21
10.58930277843325
 31
0.0
210
0.0
220
0.0
230
1.0
 40
0.6677557493
 41
2.482534617763382
 42
3.800650689416208
  0
LINE
  5
195
330
1F
100
AcDbEntity
  8
0
  6
Continuous
 62
     7
370
    25
100
AcDbLine
 10
476.5281466909
 20
268.8499210902
 30
0.0
 11
476.5281466909
 21
715.2200012036
 31
0.0
  0
LINE
  5
196
330
1F
100
AcDbEntity
  8
0
  6
Continuous
 62
     7
370
    25
100
AcDbLine
 10
476.5281466909
 20
715.2200012036
 30
0.0
 11
479.992249436
 21
715.2200012036
 31
0.0
  0
LINE
  5
197
330
1F
100
AcDbEntity
  8
0
  6
Continuous
 62
     7
370
    25
100
AcDbLine
 10
479.992249436
 20
715.2200012036
 30
0.0
 11
479.992249436
 21
268.8499210902
 31
0.0
  0
ARC
  5
198
330
1F
100
AcDbEntity
  8
0
  6
Continuous
 62
     7
370
    25
100
AcDbCircle
 10
991.8375517172
 20
267.0349602267
 30
0.0
 40
20.38119784648299
100
AcDbArc
 50
270.0
 51
0.0
  0
LINE
  5
199
330
1F
100
AcDbEntity
  8
0
  6
Continuous
 62
     7
370
    25
100
AcDbLine
 10
1014.8168293901
 20
267.0349596568
 30
0.0
 11
1012.2187523313
 21
267.0349596568
 31
0.0
  0
ARC
  5
19A
330
1F
100
AcDbEntity
  8
0
  6
Continuous
 62
     7
370
    25
100
AcDbCircle
 10
991.8375517172
 20
267.0349602267
 30
0.0
 40
22.97927405783639
100
AcDbArc
 50
270.0
 51
0.0
  0
LINE
  5
19B
330
1F
100
AcDbEntity
  8
0
  6
Continuous
 62
     7
370
    25
100
AcDbLine
 10
991.8375400968
 20
246.6537623234
 30
0.0
 11
991.8375400968
 21
244.0556852646
 31
0.0
  0
LINE
  5
19C
330
1F
100
AcDbEntity
  8
0
  6
Continuous
 62
     7
370
    25
100
AcDbLine
 10
1012.2187523313
 20
267.0349596568
 30
0.0
 11
1012.2187523313
 21
717.034962637
 31
0.0
  0
LINE
  5
19D
330
1F
100
AcDbEntity
  8
0
  6
Continuous
 62
     7
370
    25
100
AcDbLine
 10
486.8375448652
 20
246.6537623234
 30
0.0
 11
991.8375400968
 21
246.6537623234
 31
0.0
  0
ELLIPSE
  5
19E
330
1F
100
AcDbEntity
  8
0
  6
Continuous
 62
     7
370
    25
100
AcDbEllipse
 10
492.6939581777
 20
711.1785537661
 30
0.0
 11
12.78019300845381
 21
-12.78019300845381
 31
0.0
210
0.0
220
0.0
230
1.0
 40
0.7745966692
 41
2.482534617763386
 42
3.800650689416207
  0
ELLIPSE
  5
19F
330
1F
100
AcDbEntity
  8
0
  6
Continuous
 62
     7
370
    25
100
AcDbEllipse
 10
985.9811452566
 20
272.8913666872
 30
0.0
 11
-12.78019300845381
 21
12.78019300845392
 31
0.0
210
0.0
220
0.0
230
1.0
 40
0.7745966692
 41
2.482534617763395
 42
3.800650689416221
  0
LINE
  5
1A0
330
1F
100
AcDbEntity
  8
0
  6
Continuous
 62
     7
370
    25
100
AcDbLine
 10
1002.1469382711
 20
715.2200012036
 30
0.0
 11
1002.1469382711
 21
268.8499210902
 31
0.0
  0
ELLIPSE
  5
1A1
330
1F
100
AcDbEntity
  8
0
  6
Continuous
 62
     7
370
    25
100
AcDbEllipse
 10
985.9811452566
 20
711.1785537661
 30
0.0
 11
-12.78019300845392
 21
-12.78019300845381
 31
0.0
210
0.0
220
0.0
230
1.0
 40
0.7745966692
 41
2.482534617763404
 42
3.800650689416216
  0
LINE
  5
1A2
330
1F
100
AcDbEntity
  8
0
  6
Continuous
 62
     7
370
    25
100
AcDbLine
 10
488.6525062986
 20
727.3443608113
 30
0.0
 11
990.0226084657
 21
727.3443608113
 31
0.0
  0
LINE
  5
1A3
330
1F
100
AcDbEntity
  8
0
  6
Continuous
 62
     7
370
    25
100
AcDbLine
 10
991.8375400968
 20
244.0556852646
 30
0.0
 11
486.8375448652
 21
244.0556852646
 31
0.0
  0
LINE
  5
1A4
330
1F
100
AcDbEntity
  8
0
  6
Continuous
 62
     7
370
    25
100
AcDbLine
 10
488.6525062986
 20
727.3443608113
 30
0.0
 11
488.6525062986
 21
723.8802580662
 31
0.0
  0
ELLIPSE
  5
1A5
330
1F
100
AcDbEntity
  8
0
  6
Continuous
 62
     7
370
    25
100
AcDbEllipse
 10
492.6939581777
 20
711.1785537661
 30
0.0
 11
10.58930277843319
 21
-10.58930277843308
 31
0.0
210
0.0
220
0.0
230
1.0
 40
0.6677557493
 41
2.482534617763381
 42
3.800650689416195
  0
ELLIPSE
  5
1A6
330
1F
100
AcDbEntity
  8
0
  6
Continuous
 62
     7
370
    25
100
AcDbEllipse
 10
985.9811452566
 20
272.8913666872
 30
0.0
 11
10.58930277843319
 21
-10.58930277843319
 31
0.0
210
0.0
220
0.0
230
1.0
 40
0.6677557493
 41
5.624127271353203
 42
6.942243343005995
  0
LINE
  5
1A7
330
1F
100
AcDbEntity
  8
0
  6
Continuous
 62
     7
370
    25
100
AcDbLine
 10
998.6828653284
 20
268.8499210902
 30
0.0
 11
1002.1469382711
 21
268.8499210902
 31
0.0
  0
LINE
  5
1A8
330
1F
100
AcDbEntity
  8
0
  6
Continuous
 62
     7
370
    25
100
AcDbLine
 10
990.0226084657
 20
727.3443608113
 30
0.0
 11
990.0226084657
 21
723.8802580662
 31
0.0
  0
LINE
  5
1A9
330
1F
100
AcDbEntity
  8
0
  6
Continuous
 62
     7
370
    25
100
AcDbLine
 10
990.0226084657
 20
723.8802580662
 30
0.0
 11
488.6525062986
 21
723.8802580662
 31
0.0
  0
LINE
  5
1AA
330
1F
100
AcDbEntity
  8
0
  6
Continuous
 62
     7
370
    25
100
AcDbLine
 10
998.6828653284
 20
268.8499210902
 30
0.0
 11
998.6828653284
 21
715.2200012036
 31
0.0
  0
LINE
  5
1AB
330
1F
100
AcDbEntity
  8
0
  6
Continuous
 62
     7
370
    25
100
AcDbLine
 10
998.6828653284
 20
715.2200012036
 30
0.0
 11
1002.1469382711
 21
715.2200012036
 31
0.0
  0
LINE
  5
1AC
330
1F
100
AcDbEntity
  8
0
  6
Continuous
 62
     7
370
    25
100
AcDbLine
 10
1014.8168293901
 20
717.034962637
 30
0.0
 11
1014.8168293901
 21
267.0349596568
 31
0.0
  0
ELLIPSE
  5
1AD
330
1F
100
AcDbEntity
  8
0
  6
Continuous
 62
     7
370
    25
100
AcDbEllipse
 10
985.9811452566
 20
711.1785537661
 30
0.0
 11
10.5893027784332
 21
10.58930277843331
 31
0.0
210
0.0
220
0.0
230
1.0
 40
0.6677557493
 41
5.624127271353205
 42
6.942243343005987
  0
ELLIPSE
  5
1AE
330
1F
100
AcDbEntity
  8
0
  6
Continuous
 62
     7
370
    25
100
AcDbEllipse
 10
491.5392576394
 20
712.3332543045
 30
0.0
 11
-8.033264176742421
 21
8.033264176742478
 31
0.0
210
0.0
220
0.0
230
1.0
 40
0.8802234878
 41
5.624127271353194
 42
6.942243343005986
  0
LINE
  5
1AF
330
1F
100
AcDbEntity
  8
0
  6
Continuous
 62
     7
370
    25
100
AcDbLine
 10
480.8582751222
 20
714.3539755173
 30
0.0
 11
479.992249436
 21
715.2200012036
 31
0.0
  0
LINE
  5
1B0
330
1F
100
AcDbEntity
  8
0
  6
Continuous
 62
     7
370
    25
100
AcDbLine
 10
488.6525062986
 20
723.8802580662
 30
0.0
 11
489.5185319849
 21
723.01423238
 31
0.0
  0
ELLIPSE
  5
1B1
330
1F
100
AcDbEntity
  8
0
  6
Continuous
 62
     7
370
    25
100
AcDbEllipse
 10
987.135845795
 20
712.3332543045
 30
0.0
 11
8.033264176742478
 21
8.033264176742478
 31
0.0
210
0.0
220
0.0
230
1.0
 40
0.8802234878
 41
5.624127271353197
 42
6.942243343005999
  0
LINE
  5
1B2
330
1F
100
AcDbEntity
  8
0
  6
Continuous
 62
     7
370
    25
100
AcDbLine
 10
989.1565827795
 20
723.01423238
 30
0.0
 11
990.0226084657
 21
723.8802580662
 31
0.0
  0
LINE
  5
1B3
330
1F
100
AcDbEntity
  8
0
  6
Continuous
 62
     7
370
    25
100
AcDbLine
 10
998.6828653284
 20
715.2200012036
 30
0.0
 11
997.8168396421
 21
714.3539755173
 31
0.0
  0
ELLIPSE
  5
1B4
330
1F
100
AcDbEntity
  8
0
  6
Continuous
 62
     7
370
    25
100
AcDbEllipse
 10
494.4260089853
 20
274.6234174948
 30
0.0
 11
8.033264176742364
 21
8.033264176742478
 31
0.0
210
0.0
220
0.0
230
1.0
 40
0.8802234878
 41
2.482534617763379
 42
3.800650689416206
  0
LINE
  5
1B5
330
1F
100
AcDbEntity
  8
0
  6
Continuous
 62
     7
370
    25
100
AcDbLine
 10
492.4052892395
 20
263.9424322672
 30
0.0
 11
488.6525062986
 21
260.1896642275
 31
0.0
  0
LINE
  5
1B6
330
1F
100
AcDbEntity
  8
0
  6
Continuous
 62
     7
370
    25
100
AcDbLine
 10
479.992249436
 20
268.8499210902
 30
0.0
 11
483.7450323768
 21
272.6026891299
 31
0.0
  0
ELLIPSE
  5
1B7
330
1F
100
AcDbEntity
  8
0
  6
Continuous
 62
     7
370
    25
100
AcDbEllipse
 10
984.2490944491
 20
274.6234174948
 30
0.0
 11
8.033264176742478
 21
-8.033264176742421
 31
0.0
210
0.0
220
0.0
230
1.0
 40
0.8802234878
 41
5.62412727135318
 42
6.942243343005994
  0
LINE
  5
1B8
330
1F
100
AcDbEntity
  8
0
  6
Continuous
 62
     7
370
    25
100
AcDbLine
 10
994.9300674863
 20
272.6026891299
 30
0.0
 11
998.6828653284
 21
268.8499210902
 31
0.0
  0
LINE
  5
1B9
330
1F
100
AcDbEntity
  8
0
  6
Continuous
 62
     7
370
    25
100
AcDbLine
 10
990.0226084657
 20
260.1896642275
 30
0.0
 11
986.2698106237
 21
263.9424322672
 31
0.0
  0
ARC
  5
1BA
330
1F
100
AcDbEntity
  8
0
  6
Continuous
 62
     7
370
    25
100
AcDbCircle
 10
486.8375517172
 20
717.0349602267
 30
0.0
 40
25.0
100
AcDbArc
 50
90.0
 51
180.0
  0
LINE
  5
1BB
330
1F
100
AcDbEntity
  8
0
  6
Continuous
 62
     7
370
    25
100
AcDbLine
 10
486.8375448652
 20
742.0349536963
 30
0.0
 11
486.8375448652
 21
740.0142370291
 31
0.0
  0
LINE
  5
1BC
330
1F
100
AcDbEntity
  8
0
  6
Continuous
 62
     7
370
    25
100
AcDbLine
 10
461.8375538059
 20
717.034962637
 30
0.0
 11
463.8582704731
 21
717.034962637
 31
0.0
  0
ARC
  5
1BD
330
1F
100
AcDbEntity
  8
0
  6
Continuous
 62
     7
370
    25
100
AcDbCircle
 10
486.8375517172
 20
267.0349602267
 30
0.0
 40
25.0
100
AcDbArc
 50
180.0
 51
270.0
  0
LINE
  5
1BE
330
1F
100
AcDbEntity
  8
0
  6
Continuous
 62
     7
370
    25
100
AcDbLine
 10
463.8582704731
 20
267.0349596568
 30
0.0
 11
461.8375538059
 21
267.0349596568
 31
0.0
  0
LINE
  5
1BF
330
1F
100
AcDbEntity
  8
0
  6
Continuous
 62
     7
370
    25
100
AcDbLine
 10
486.8375448652
 20
244.0556852646
 30
0.0
 11
486.8375448652
 21
242.0349536963
 31
0.0
  0
LINE
  5
1C0
330
1F
100
AcDbEntity
  8
0
  6
Continuous
 62
     7
370
    25
100
AcDbLine
 10
486.8375448652
 20
742.0349536963
 30
0.0
 11
991.8375400968
 21
742.0349536963
 31
0.0
  0
LINE
  5
1C1
330
1F
100
AcDbEntity
  8
0
  6
Continuous
 62
     7
370
    25
100
AcDbLine
 10
991.8375400968
 20
742.0349536963
 30
0.0
 11
991.8375400968
 21
740.0142370291
 31
0.0
  0
LINE
  5
1C2
330
1F
100
AcDbEntity
  8
0
  6
Continuous
 62
     7
370
    25
100
AcDbLine
 10
1016.8375460573
 20
717.034962637
 30
0.0
 11
1016.8375460573
 21
267.0349596568
 31
0.0
  0
LINE
  5
1C3
330
1F
100
AcDbEntity
  8
0
  6
Continuous
 62
     7
370
    25
100
AcDbLine
 10
1014.8168293901
 20
267.0349596568
 30
0.0
 11
1016.8375460573
 21
267.0349596568
 31
0.0
  0
LINE
  5
1C4
330
1F
100
AcDbEntity
  8
0
  6
Continuous
 62
     7
370
    25
100
AcDbLine
 10
1016.8375460573
 20
717.034962637
 30
0.0
 11
1014.8168293901
 21
717.034962637
 31
0.0
  0
ARC
  5
1C5
330
1F
100
AcDbEntity
  8
0
  6
Continuous
 62
     7
370
    25
100
AcDbCircle
 10
991.8375517172
 20
717.0349602267
 30
0.0
 40
25.00000000000011
100
AcDbArc
 50
0.0
 51
90.0
  0
ARC
  5
1C6
330
1F
100
AcDbEntity
  8
0
  6
Continuous
 62
     7
370
    25
100
AcDbCircle
 10
991.8375517172
 20
267.0349602267
 30
0.0
 40
25.0
100
AcDbArc
 50
270.0
 51
0.0
  0
LINE
  5
1C7
330
1F
100
AcDbEntity
  8
0
  6
Continuous
 62
     7
370
    25
100
AcDbLine
 10
991.8375400968
 20
244.0556852646
 30
0.0
 11
991.8375400968
 21
242.0349536963
 31
0.0
  0
LINE
  5
1C8
330
1F
100
AcDbEntity
  8
0
  6
Continuous
 62
     7
370
    25
100
AcDbLine
 10
991.8375400968
 20
242.0349536963
 30
0.0
 11
486.8375448652
 21
242.0349536963
 31
0.0
  0
LINE
  5
1C9
330
1F
100
AcDbEntity
  8
0
  6
Continuous
 62
     7
370
    25
100
AcDbLine
 10
461.8375538059
 20
267.0349596568
 30
0.0
 11
461.8375538059
 21
717.034962637
 31
0.0
  0
LINE
  5
1CA
330
1F
100
AcDbEntity
  8
0
  6
Continuous
 62
     7
370
    25
100
AcDbLine
 10
489.5185319849
 20
723.01423238
 30
0.0
 11
989.1565827795
 21
723.01423238
 31
0.0
  0
LINE
  5
1CB
330
1F
100
AcDbEntity
  8
0
  6
Continuous
 62
     7
370
    25
100
AcDbLine
 10
994.9300674863
 20
632.1106074877
 30
0.0
 11
994.9300674863
 21
272.6026891299
 31
0.0
  0
LINE
  5
1CC
330
1F
100
AcDbEntity
  8
0
  6
Continuous
 62
     7
370
    25
100
AcDbLine
 10
996.0847882696
 20
633.2652984686
 30
0.0
 11
994.9300674863
 21
632.1106074877
 31
0.0
  0
SPLINE
  5
1CD
330
1F
100
AcDbEntity
  8
0
  6
Continuous
 62
     7
370
    25
100
AcDbSpline
210
0.0
220
0.0
230
1.0
 70
     8
 71
     3
 72
    13
 73
     9
 74
     0
 42
0.000000001
 43
0.00000001
 40
0.0
 40
0.0
 40
0.0
 40
0.0
 40
0.2132319688829995
 40
0.4267742669355213
 40
0.7820510874260009
 40
0.9480557605556824
 40
0.9976552063897401
 40
1.0
 40
1.0
 40
1.0
 40
1.0
 10
997.8168396421037
 20
643.523570758878
 30
0.0
 10
997.7957579426817
 20
642.7442698329063
 30
0.0
 10
997.7535638623866
 20
641.1845338179648
 30
0.0
 10
997.3892576894343
 20
638.4067604649573
 30
0.0
 10
996.8474921322735
 20
635.9397200389184
 30
0.0
 10
996.3394178926985
 20
634.1191670582724
 30
0.0
 10
996.1358546972241
 20
633.4351487855582
 30
0.0
 10
996.0869938758741
 20
633.2726344611199
 30
0.0
 10
996.0847882695755
 20
633.2652984686481
 30
0.0
  0
LINE
  5
1CE
330
1F
100
AcDbEntity
  8
0
  6
Continuous
 62
     7
370
    25
100
AcDbLine
 10
997.8168396421
 20
714.3539755173
 30
0.0
 11
997.8168396421
 21
643.5235707589
 31
0.0
  0
LINE
  5
1CF
330
1F
100
AcDbEntity
  8
0
  6
Continuous
 62
     7
370
    25
100
AcDbLine
 10
480.8582751222
 20
643.5235707589
 30
0.0
 11
480.8582751222
 21
714.3539755173
 31
0.0
  0
SPLINE
  5
1D0
330
1F
100
AcDbEntity
  8
0
  6
Continuous
 62
     7
370
    25
100
AcDbSpline
210
0.0
220
0.0
230
1.0
 70
     8
 71
     3
 72
    13
 73
     9
 74
     0
 42
0.000000001
 43
0.00000001
 40
0.0
 40
0.0
 40
0.0
 40
0.0
 40
0.0023451493358444
 40
0.0506369321969757
 40
0.2142915225289241
 40
0.5665825728635838
 40
0.7834556130686194
 40
1.0
 40
1.0
 40
1.0
 40
1.0
 10
482.5903264947494
 20
633.2652984686481
 30
0.0
 10
482.5881158103799
 20
633.2726344326618
 30
0.0
 10
482.540382272553
 20
633.4310340307948
 30
0.0
 10
482.3404224800881
 20
634.1035844815578
 30
0.0
 10
481.8373646041301
 20
635.9021729301932
 30
0.0
 10
481.2946241170208
 20
638.359582624585
 30
0.0
 10
480.9235470797314
 20
641.1481178420041
 30
0.0
 10
480.8800214398001
 20
642.7321535026094
 30
0.0
 10
480.8582751222214
 20
643.523570758878
 30
0.0
  0
LINE
  5
1D1
330
1F
100
AcDbEntity
  8
0
  6
Continuous
 62
     7
370
    25
100
AcDbLine
 10
483.7450323768
 20
632.1106074877
 30
0.0
 11
482.5903264947
 21
633.2652984686
 31
0.0
  0
LINE
  5
1D2
330
1F
100
AcDbEntity
  8
0
  6
Continuous
 62
     7
370
    25
100
AcDbLine
 10
483.7450323768
 20
272.6026891299
 30
0.0
 11
483.7450323768
 21
632.1106074877
 31
0.0
  0
LINE
  5
1D3
330
1F
100
AcDbEntity
  8
0
  6
Continuous
 62
     7
370
    25
100
AcDbLine
 10
986.2698106237
 20
263.9424322672
 30
0.0
 11
492.4052892395
 21
263.9424322672
 31
0.0
  0
SPLINE
  5
1D4
330
1F
100
AcDbEntity
  8
0
  6
Continuous
 62
     7
370
    25
100
AcDbSpline
210
0.0
220
0.0
230
1.0
 70
     8
 71
     3
 72
    13
 73
     9
 74
     0
 42
0.000000001
 43
0.00000001
 40
0.0
 40
0.0
 40
0.0
 40
0.0
 40
0.4035791497376704
 40
0.7682405194021914
 40
0.9448381824606081
 40
0.9910504204869459
 40
0.9973154762203071
 40
1.0
 40
1.0
 40
1.0
 40
1.0
 10
483.4563521810135
 20
643.5235707588779
 30
0.0
 10
483.108635406493
 20
642.1533133689521
 30
0.0
 10
482.4467327397271
 20
639.5449346912242
 30
0.0
 10
482.3344469986013
 20
636.2752845265913
 30
0.0
 10
482.4724563191936
 20
634.2691769378432
 30
0.0
 10
482.5618657083706
 20
633.4916240049143
 30
0.0
 10
482.5853273632105
 20
633.3047118858848
 30
0.0
 10
482.5891729647216
 20
633.2743929603463
 30
0.0
 10
482.5903264947494
 20
633.2652984686482
 30
0.0
  0
LINE
  5
1D5
330
1F
100
AcDbEntity
  8
0
  6
Continuous
 62
     7
370
    25
100
AcDbLine
 10
483.456352181
 20
643.5235707589
 30
0.0
 11
480.8582751222
 21
643.5235707589
 31
0.0
  0
LINE
  5
1D6
330
1F
100
AcDbEntity
  8
0
  6
Continuous
 62
     7
370
    25
100
AcDbLine
 10
997.8168396421
 20
643.5235707589
 30
0.0
 11
995.2187625833
 21
643.5235707589
 31
0.0
  0
SPLINE
  5
1D7
330
1F
100
AcDbEntity
  8
0
  6
Continuous
 62
     7
370
    25
100
AcDbSpline
210
0.0
220
0.0
230
1.0
 70
     8
 71
     3
 72
    13
 73
     9
 74
     0
 42
0.000000001
 43
0.00000001
 40
0.0
 40
0.0
 40
0.0
 40
0.0
 40
0.3969923458739646
 40
0.7643370778813081
 40
0.9434193972001713
 40
0.9908412089628217
 40
0.9973155402781186
 40
1.0
 40
1.0
 40
1.0
 40
1.0
 10
995.2187625833114
 20
643.5235707588779
 30
0.0
 10
995.5617835850048
 20
642.17598494903
 30
0.0
 10
996.222208585162
 20
639.5814518029916
 30
0.0
 10
996.3418666755995
 20
636.316224073824
 30
0.0
 10
996.2047461820837
 20
634.2880086834193
 30
0.0
 10
996.1138268338234
 20
633.4971528058353
 30
0.0
 10
996.0898799536419
 20
633.30542123473
 30
0.0
 10
996.0859423801378
 20
633.2743929268901
 30
0.0
 10
996.0847882695755
 20
633.2652984686481
 30
0.0
  0
LINE
  5
1D8
330
1F
100
AcDbEntity
  8
0
  6
Continuous
 62
     7
370
    25
100
AcDbLine
 10
483.456352181
 20
714.3539755173
 30
0.0
 11
483.456352181
 21
643.5235707589
 31
0.0
  0
LINE
  5
1D9
330
1F
100
AcDbEntity
  8
0
  6
Continuous
 62
     7
370
    25
100
AcDbLine
 10
480.8582751222
 20
714.3539755173
 30
0.0
 11
483.456352181
 21
714.3539755173
 31
0.0
  0
LINE
  5
1DA
330
1F
100
AcDbEntity
  8
0
  6
Continuous
 62
     7
370
    25
100
AcDbLine
 10
489.5185319849
 20
723.01423238
 30
0.0
 11
489.5185319849
 21
720.4161553212
 31
0.0
  0
ELLIPSE
  5
1DB
330
1F
100
AcDbEntity
  8
0
  6
Continuous
 62
     7
370
    25
100
AcDbEllipse
 10
491.5392576394
 20
712.3332543045
 30
0.0
 11
6.39009650422696
 21
-6.390096504226904
 31
0.0
210
0.0
220
0.0
230
1.0
 40
0.7745966692
 41
2.482534617763384
 42
3.80065068941619
  0
LINE
  5
1DC
330
1F
100
AcDbEntity
  8
0
  6
Continuous
 62
     7
370
    25
100
AcDbLine
 10
997.8168396421
 20
714.3539755173
 30
0.0
 11
995.2187625833
 21
714.3539755173
 31
0.0
  0
ELLIPSE
  5
1DD
330
1F
100
AcDbEntity
  8
0
  6
Continuous
 62
     7
370
    25
100
AcDbEllipse
 10
987.135845795
 20
712.3332543045
 30
0.0
 11
-6.390096504226904
 21
-6.390096504226904
 31
0.0
210
0.0
220
0.0
230
1.0
 40
0.7745966692
 41
2.482534617763403
 42
3.800650689416202
  0
LINE
  5
1DE
330
1F
100
AcDbEntity
  8
0
  6
Continuous
 62
     7
370
    25
100
AcDbLine
 10
989.1565827795
 20
723.01423238
 30
0.0
 11
989.1565827795
 21
720.4161553212
 31
0.0
  0
LINE
  5
1DF
330
1F
100
AcDbEntity
  8
0
  6
Continuous
 62
     7
370
    25
100
AcDbLine
 10
989.1565827795
 20
720.4161553212
 30
0.0
 11
489.5185319849
 21
720.4161553212
 31
0.0
  0
LINE
  5
1E0
330
1F
100
AcDbEntity
  8
0
  6
Continuous
 62
     7
370
    25
100
AcDbLine
 10
995.2187625833
 20
643.5235707589
 30
0.0
 11
995.2187625833
 21
714.3539755173
 31
0.0
  0
ELLIPSE
  5
1E1
330
1F
100
AcDbEntity
  8
0
  6
Continuous
 62
     7
370
    25
100
AcDbEllipse
 10
500.7768619464
 20
628.0691526894
 30
0.0
 11
16.43167672515511
 21
-16.43167672515494
 31
0.0
210
0.0
220
0.0
230
1.0
 40
0.7745966692
 41
2.482534617763375
 42
3.214965145959056
  0
LINE
  5
1E2
330
1F
100
AcDbEntity
  8
0
  6
Continuous
 62
     7
370
    25
100
AcDbLine
 10
495.5807117887
 20
648.8537608214
 30
0.0
 11
495.5807117887
 21
646.2556837626
 31
0.0
  0
ELLIPSE
  5
1E3
330
1F
100
AcDbEntity
  8
0
  6
Continuous
 62
     7
370
    25
100
AcDbEllipse
 10
500.7768619464
 20
628.0691526894
 30
0.0
 11
14.78850905263965
 21
-14.78850905263948
 31
0.0
210
0.0
220
0.0
230
1.0
 40
0.7172191382
 41
2.482534617763376
 42
3.80065068941621
  0
LINE
  5
1E4
330
1F
100
AcDbEntity
  8
0
  6
Continuous
 62
     7
370
    25
100
AcDbLine
 10
515.3674719997
 20
710.2161614724
 30
0.0
 11
515.3674719997
 21
708.1939397879
 31
0.0
  0
LINE
  5
1E5
330
1F
100
AcDbEntity
  8
0
  6
Continuous
 62
     7
370
    25
100
AcDbLine
 10
515.3674719997
 20
708.1939397879
 30
0.0
 11
515.1674686142
 21
708.1939397879
 31
0.0
  0
LINE
  5
1E6
330
1F
100
AcDbEntity
  8
0
  6
Continuous
 62
     7
370
    25
100
AcDbLine
 10
515.1674686142
 20
708.1939397879
 30
0.0
 11
515.1674686142
 21
710.2161614724
 31
0.0
  0
LINE
  5
1E7
330
1F
100
AcDbEntity
  8
0
  6
Continuous
 62
     7
370
    25
100
AcDbLine
 10
515.3674719997
 20
710.2161614724
 30
0.0
 11
515.1674686142
 21
710.2161614724
 31
0.0
  0
LINE
  5
1E8
330
1F
100
AcDbEntity
  8
0
  6
Continuous
 62
     7
370
    25
100
AcDbLine
 10
509.0785710283
 20
702.616152031
 30
0.0
 11
512.4563513465
 21
702.616152031
 31
0.0
  0
LINE
  5
1E9
330
1F
100
AcDbEntity
  8
0
  6
Continuous
 62
     7
370
    25
100
AcDbLine
 10
512.4563513465
 20
702.616152031
 30
0.0
 11
512.4563513465
 21
702.4161635466
 31
0.0
  0
LINE
  5
1EA
330
1F
100
AcDbEntity
  8
0
  6
Continuous
 62
     7
370
    25
100
AcDbLine
 10
512.4563513465
 20
702.4161635466
 30
0.0
 11
509.0785710283
 21
702.4161635466
 31
0.0
  0
LINE
  5
1EB
330
1F
100
AcDbEntity
  8
0
  6
Continuous
 62
     7
370
    25
100
AcDbLine
 10
509.0785710283
 20
702.4161635466
 30
0.0
 11
509.0785710283
 21
702.616152031
 31
0.0
  0
LINE
  5
1EC
330
1F
100
AcDbEntity
  8
0
  6
Continuous
 62
     7
370
    25
100
AcDbLine
 10
503.7674693533
 20
704.6383737155
 30
0.0
 11
498.6563561626
 21
704.6383737155
 31
0.0
  0
LINE
  5
1ED
330
1F
100
AcDbEntity
  8
0
  6
Continuous
 62
     7
370
    25
100
AcDbLine
 10
498.6563561626
 20
704.6383737155
 30
0.0
 11
498.6563561626
 21
704.838377101
 31
0.0
  0
LINE
  5
1EE
330
1F
100
AcDbEntity
  8
0
  6
Continuous
 62
     7
370
    25
100
AcDbLine
 10
498.6563561626
 20
704.838377101
 30
0.0
 11
503.7674693533
 21
704.838377101
 31
0.0
  0
LINE
  5
1EF
330
1F
100
AcDbEntity
  8
0
  6
Continuous
 62
     7
370
    25
100
AcDbLine
 10
503.7674693533
 20
704.6383737155
 30
0.0
 11
503.7674693533
 21
704.838377101
 31
0.0
  0
LINE
  5
1F0
330
1F
100
AcDbEntity
  8
0
  6
Continuous
 62
     7
370
    25
100
AcDbLine
 10
522.9230163761
 20
702.4161635466
 30
0.0
 11
522.9230163761
 21
702.616152031
 31
0.0
  0
LINE
  5
1F1
330
1F
100
AcDbEntity
  8
0
  6
Continuous
 62
     7
370
    25
100
AcDbLine
 10
523.1230197616
 20
702.616152031
 30
0.0
 11
522.9230163761
 21
702.616152031
 31
0.0
  0
ARC
  5
1F2
330
1F
100
AcDbEntity
  8
0
  6
Continuous
 62
     7
370
    25
100
AcDbCircle
 10
522.9230205107
 20
702.6161580731
 30
0.0
 40
0.2000000000000455
100
AcDbArc
 50
270.0
 51
0.0
  0
ARC
  5
1F3
330
1F
100
AcDbEntity
  8
0
  6
Continuous
 62
     7
370
    25
100
AcDbCircle
 10
501.0563538707
 20
707.7494914331
 30
0.0
 40
0.2000000000001592
100
AcDbArc
 50
180.0
 51
270.0
  0
LINE
  5
1F4
330
1F
100
AcDbEntity
  8
0
  6
Continuous
 62
     7
370
    25
100
AcDbLine
 10
501.0563520856
 20
707.5494943686
 30
0.0
 11
501.0563520856
 21
707.3494909831
 31
0.0
  0
ARC
  5
1F5
330
1F
100
AcDbEntity
  8
0
  6
Continuous
 62
     7
370
    25
100
AcDbCircle
 10
501.0563538707
 20
707.7494914331
 30
0.0
 40
0.4000000000000909
100
AcDbArc
 50
180.0
 51
270.0
  0
LINE
  5
1F6
330
1F
100
AcDbEntity
  8
0
  6
Continuous
 62
     7
370
    25
100
AcDbLine
 10
500.8563487001
 20
707.7494977542
 30
0.0
 11
500.6563602157
 21
707.7494977542
 31
0.0
  0
LINE
  5
1F7
330
1F
100
AcDbEntity
  8
0
  6
Continuous
 62
     7
370
    25
100
AcDbLine
 10
506.1674652763
 20
707.3494909831
 30
0.0
 11
501.0563520856
 21
707.3494909831
 31
0.0
  0
LINE
  5
1F8
330
1F
100
AcDbEntity
  8
0
  6
Continuous
 62
     7
370
    25
100
AcDbLine
 10
501.0563520856
 20
707.5494943686
 30
0.0
 11
506.1674652763
 21
707.5494943686
 31
0.0
  0
LINE
  5
1F9
330
1F
100
AcDbEntity
  8
0
  6
Continuous
 62
     7
370
    25
100
AcDbLine
 10
506.1674652763
 20
707.3494909831
 30
0.0
 11
506.1674652763
 21
707.5494943686
 31
0.0
  0
LINE
  5
1FA
330
1F
100
AcDbEntity
  8
0
  6
Continuous
 62
     7
370
    25
100
AcDbLine
 10
520.523020453
 20
704.6383737155
 30
0.0
 11
517.7674679227
 21
704.6383737155
 31
0.0
  0
ARC
  5
1FB
330
1F
100
AcDbEntity
  8
0
  6
Continuous
 62
     7
370
    25
100
AcDbCircle
 10
520.5230205107
 20
705.0383803131
 30
0.0
 40
0.3999999999999773
100
AcDbArc
 50
270.0
 51
0.0
  0
LINE
  5
1FC
330
1F
100
AcDbEntity
  8
0
  6
Continuous
 62
     7
370
    25
100
AcDbLine
 10
520.9230272241
 20
705.0828306504
 30
0.0
 11
520.9230272241
 21
705.0383804865
 31
0.0
  0
ARC
  5
1FD
330
1F
100
AcDbEntity
  8
0
  6
Continuous
 62
     7
370
    25
100
AcDbCircle
 10
520.5230205107
 20
705.0828247131
 30
0.0
 40
0.4000000000000909
100
AcDbArc
 50
0.0
 51
90.0
  0
LINE
  5
1FE
330
1F
100
AcDbEntity
  8
0
  6
Continuous
 62
     7
370
    25
100
AcDbLine
 10
517.7674679227
 20
705.4828225203
 30
0.0
 11
520.523020453
 21
705.4828225203
 31
0.0
  0
ARC
  5
1FF
330
1F
100
AcDbEntity
  8
0
  6
Continuous
 62
     7
370
    25
100
AcDbCircle
 10
517.7674649807
 20
705.0828247131
 30
0.0
 40
0.3999999999999773
100
AcDbArc
 50
90.0
 51
180.0
  0
LINE
  5
200
330
1F
100
AcDbEntity
  8
0
  6
Continuous
 62
     7
370
    25
100
AcDbLine
 10
517.3674611517
 20
705.0383804865
 30
0.0
 11
517.3674611517
 21
705.0828306504
 31
0.0
  0
ARC
  5
201
330
1F
100
AcDbEntity
  8
0
  6
Continuous
 62
     7
370
    25
100
AcDbCircle
 10
517.7674649807
 20
705.0383803131
 30
0.0
 40
0.4000000000000909
100
AcDbArc
 50
180.0
 51
270.0
  0
LINE
  5
202
330
1F
100
AcDbEntity
  8
0
  6
Continuous
 62
     7
370
    25
100
AcDbLine
 10
520.9230272241
 20
707.7939330168
 30
0.0
 11
520.9230272241
 21
707.7494977542
 31
0.0
  0
ARC
  5
203
330
1F
100
AcDbEntity
  8
0
  6
Continuous
 62
     7
370
    25
100
AcDbCircle
 10
520.5230205107
 20
707.7939358331
 30
0.0
 40
0.3999999999999773
100
AcDbArc
 50
0.0
 51
90.0
  0
LINE
  5
204
330
1F
100
AcDbEntity
  8
0
  6
Continuous
 62
     7
370
    25
100
AcDbLine
 10
515.3674719997
 20
708.1939397879
 30
0.0
 11
520.523020453
 21
708.1939397879
 31
0.0
  0
LINE
  5
205
330
1F
100
AcDbEntity
  8
0
  6
Continuous
 62
     7
370
    25
100
AcDbLine
 10
522.9230163761
 20
710.2161614724
 30
0.0
 11
515.3674719997
 21
710.2161614724
 31
0.0
  0
LINE
  5
206
330
1F
100
AcDbEntity
  8
0
  6
Continuous
 62
     7
370
    25
100
AcDbLine
 10
522.9230163761
 20
702.616152031
 30
0.0
 11
522.9230163761
 21
710.2161614724
 31
0.0
  0
LINE
  5
207
330
1F
100
AcDbEntity
  8
0
  6
Continuous
 62
     7
370
    25
100
AcDbLine
 10
515.3674719997
 20
702.616152031
 30
0.0
 11
522.9230163761
 21
702.616152031
 31
0.0
  0
LINE
  5
208
330
1F
100
AcDbEntity
  8
0
  6
Continuous
 62
     7
370
    25
100
AcDbLine
 10
515.3674719997
 20
707.3494909831
 30
0.0
 11
515.3674719997
 21
702.616152031
 31
0.0
  0
LINE
  5
209
330
1F
100
AcDbEntity
  8
0
  6
Continuous
 62
     7
370
    25
100
AcDbLine
 10
520.523020453
 20
707.3494909831
 30
0.0
 11
515.3674719997
 21
707.3494909831
 31
0.0
  0
ARC
  5
20A
330
1F
100
AcDbEntity
  8
0
  6
Continuous
 62
     7
370
    25
100
AcDbCircle
 10
520.5230205107
 20
707.7494914331
 30
0.0
 40
0.3999999999999773
100
AcDbArc
 50
270.0
 51
0.0
  0
LINE
  5
20B
330
1F
100
AcDbEntity
  8
0
  6
Continuous
 62
     7
370
    25
100
AcDbLine
 10
508.8785825439
 20
702.616152031
 30
0.0
 11
509.0785710283
 21
702.616152031
 31
0.0
  0
ARC
  5
20C
330
1F
100
AcDbEntity
  8
0
  6
Continuous
 62
     7
370
    25
100
AcDbCircle
 10
509.0785761107
 20
702.6161580731
 30
0.0
 40
0.2000000000001023
100
AcDbArc
 50
180.0
 51
270.0
  0
ARC
  5
20D
330
1F
100
AcDbEntity
  8
0
  6
Continuous
 62
     7
370
    25
100
AcDbCircle
 10
506.1674649907
 20
707.3494914331
 30
0.0
 40
0.1999999999999886
100
AcDbArc
 50
0.0
 51
90.0
  0
LINE
  5
20E
330
1F
100
AcDbEntity
  8
0
  6
Continuous
 62
     7
370
    25
100
AcDbLine
 10
506.1674652763
 20
707.3494909831
 30
0.0
 11
506.3674686618
 21
707.3494909831
 31
0.0
  0
LINE
  5
20F
330
1F
100
AcDbEntity
  8
0
  6
Continuous
 62
     7
370
    25
100
AcDbLine
 10
514.5230231948
 20
710.2161614724
 30
0.0
 11
507.0119140812
 21
710.2161614724
 31
0.0
  0
LINE
  5
210
330
1F
100
AcDbEntity
  8
0
  6
Continuous
 62
     7
370
    25
100
AcDbLine
 10
507.0119140812
 20
710.4161648579
 30
0.0
 11
507.0119140812
 21
710.2161614724
 31
0.0
  0
LINE
  5
211
330
1F
100
AcDbEntity
  8
0
  6
Continuous
 62
     7
370
    25
100
AcDbLine
 10
507.0119140812
 20
710.4161648579
 30
0.0
 11
514.5230231948
 21
710.4161648579
 31
0.0
  0
LINE
  5
212
330
1F
100
AcDbEntity
  8
0
  6
Continuous
 62
     7
370
    25
100
AcDbLine
 10
514.5230231948
 20
710.2161614724
 30
0.0
 11
514.5230231948
 21
710.4161648579
 31
0.0
  0
ARC
  5
213
330
1F
100
AcDbEntity
  8
0
  6
Continuous
 62
     7
370
    25
100
AcDbCircle
 10
499.4563538707
 20
703.4161580731
 30
0.0
 40
0.8000000000000114
100
AcDbArc
 50
180.0
 51
270.0
  0
LINE
  5
214
330
1F
100
AcDbEntity
  8
0
  6
Continuous
 62
     7
370
    25
100
AcDbLine
 10
499.4563548036
 20
702.616152031
 30
0.0
 11
499.4563548036
 21
702.4161635466
 31
0.0
  0
ARC
  5
215
330
1F
100
AcDbEntity
  8
0
  6
Continuous
 62
     7
370
    25
100
AcDbCircle
 10
499.4563538707
 20
703.4161580731
 30
0.0
 40
1.0
100
AcDbArc
 50
180.0
 51
270.0
  0
LINE
  5
216
330
1F
100
AcDbEntity
  8
0
  6
Continuous
 62
     7
370
    25
100
AcDbLine
 10
498.6563561626
 20
703.416150672
 30
0.0
 11
498.4563527771
 21
703.416150672
 31
0.0
  0
LINE
  5
217
330
1F
100
AcDbEntity
  8
0
  6
Continuous
 62
     7
370
    25
100
AcDbLine
 10
520.9230272241
 20
707.7939330168
 30
0.0
 11
520.7230238386
 21
707.7939330168
 31
0.0
  0
ARC
  5
218
330
1F
100
AcDbEntity
  8
0
  6
Continuous
 62
     7
370
    25
100
AcDbCircle
 10
520.5230205107
 20
707.7939358331
 30
0.0
 40
0.2000000000000455
100
AcDbArc
 50
0.0
 51
90.0
  0
LINE
  5
219
330
1F
100
AcDbEntity
  8
0
  6
Continuous
 62
     7
370
    25
100
AcDbLine
 10
520.523020453
 20
708.1939397879
 30
0.0
 11
520.523020453
 21
707.9939364024
 31
0.0
  0
LINE
  5
21A
330
1F
100
AcDbEntity
  8
0
  6
Continuous
 62
     7
370
    25
100
AcDbLine
 10
523.1230197616
 20
710.2161614724
 30
0.0
 11
523.1230197616
 21
702.616152031
 31
0.0
  0
LINE
  5
21B
330
1F
100
AcDbEntity
  8
0
  6
Continuous
 62
     7
370
    25
100
AcDbLine
 10
523.1230197616
 20
710.2161614724
 30
0.0
 11
522.9230163761
 21
710.2161614724
 31
0.0
  0
LINE
  5
21C
330
1F
100
AcDbEntity
  8
0
  6
Continuous
 62
     7
370
    25
100
AcDbLine
 10
498.6563561626
 20
704.6383737155
 30
0.0
 11
498.4563527771
 21
704.6383737155
 31
0.0
  0
ARC
  5
21D
330
1F
100
AcDbEntity
  8
0
  6
Continuous
 62
     7
370
    25
100
AcDbCircle
 10
498.6563538707
 20
704.6383803131
 30
0.0
 40
0.2000000000001592
100
AcDbArc
 50
90.0
 51
180.0
  0
ARC
  5
21E
330
1F
100
AcDbEntity
  8
0
  6
Continuous
 62
     7
370
    25
100
AcDbCircle
 10
537.1896872407
 20
705.0828247131
 30
0.0
 40
0.2000000000000455
100
AcDbArc
 50
0.0
 51
90.0
  0
LINE
  5
21F
330
1F
100
AcDbEntity
  8
0
  6
Continuous
 62
     7
370
    25
100
AcDbLine
 10
537.1896861263
 20
705.2828191348
 30
0.0
 11
537.1896861263
 21
705.4828225203
 31
0.0
  0
ARC
  5
220
330
1F
100
AcDbEntity
  8
0
  6
Continuous
 62
     7
370
    25
100
AcDbCircle
 10
537.1896872407
 20
705.0828247131
 30
0.0
 40
0.3999999999999773
100
AcDbArc
 50
0.0
 51
90.0
  0
LINE
  5
221
330
1F
100
AcDbEntity
  8
0
  6
Continuous
 62
     7
370
    25
100
AcDbLine
 10
537.3896895118
 20
705.0828306504
 30
0.0
 11
537.5896928974
 21
705.0828306504
 31
0.0
  0
LINE
  5
222
330
1F
100
AcDbEntity
  8
0
  6
Continuous
 62
     7
370
    25
100
AcDbLine
 10
506.8119106956
 20
708.1939397879
 30
0.0
 11
506.8119106956
 21
710.2161614724
 31
0.0
  0
LINE
  5
223
330
1F
100
AcDbEntity
  8
0
  6
Continuous
 62
     7
370
    25
100
AcDbLine
 10
506.8119106956
 20
710.2161614724
 30
0.0
 11
507.0119140812
 21
710.2161614724
 31
0.0
  0
LINE
  5
224
330
1F
100
AcDbEntity
  8
0
  6
Continuous
 62
     7
370
    25
100
AcDbLine
 10
507.0119140812
 20
710.2161614724
 30
0.0
 11
507.0119140812
 21
708.1939397879
 31
0.0
  0
LINE
  5
225
330
1F
100
AcDbEntity
  8
0
  6
Continuous
 62
     7
370
    25
100
AcDbLine
 10
506.8119106956
 20
708.1939397879
 30
0.0
 11
507.0119140812
 21
708.1939397879
 31
0.0
  0
LINE
  5
226
330
1F
100
AcDbEntity
  8
0
  6
Continuous
 62
     7
370
    25
100
AcDbLine
 10
515.3674719997
 20
708.1939397879
 30
0.0
 11
515.3674719997
 21
707.9939364024
 31
0.0
  0
ARC
  5
227
330
1F
100
AcDbEntity
  8
0
  6
Continuous
 62
     7
370
    25
100
AcDbCircle
 10
515.3674649107
 20
708.1939358331
 30
0.0
 40
0.1999999999999318
100
AcDbArc
 50
180.0
 51
270.0
  0
ARC
  5
228
330
1F
100
AcDbEntity
  8
0
  6
Continuous
 62
     7
370
    25
100
AcDbCircle
 10
499.4563538707
 20
709.4161580731
 30
0.0
 40
1.000000000000341
100
AcDbArc
 50
90.0
 51
180.0
  0
LINE
  5
229
330
1F
100
AcDbEntity
  8
0
  6
Continuous
 62
     7
370
    25
100
AcDbLine
 10
499.4563548036
 20
710.4161648579
 30
0.0
 11
499.4563548036
 21
710.2161614724
 31
0.0
  0
ARC
  5
22A
330
1F
100
AcDbEntity
  8
0
  6
Continuous
 62
     7
370
    25
100
AcDbCircle
 10
499.4563538707
 20
709.4161580731
 30
0.0
 40
0.8000000000002956
100
AcDbArc
 50
90.0
 51
180.0
  0
LINE
  5
22B
330
1F
100
AcDbEntity
  8
0
  6
Continuous
 62
     7
370
    25
100
AcDbLine
 10
498.4563527771
 20
709.4161628314
 30
0.0
 11
498.6563561626
 21
709.4161628314
 31
0.0
  0
LINE
  5
22C
330
1F
100
AcDbEntity
  8
0
  6
Continuous
 62
     7
370
    25
100
AcDbLine
 10
532.034137673
 20
708.1939397879
 30
0.0
 11
537.1896861263
 21
708.1939397879
 31
0.0
  0
LINE
  5
22D
330
1F
100
AcDbEntity
  8
0
  6
Continuous
 62
     7
370
    25
100
AcDbLine
 10
532.034137673
 20
710.2161614724
 30
0.0
 11
532.034137673
 21
708.1939397879
 31
0.0
  0
LINE
  5
22E
330
1F
100
AcDbEntity
  8
0
  6
Continuous
 62
     7
370
    25
100
AcDbLine
 10
538.7896834083
 20
710.2161614724
 30
0.0
 11
532.034137673
 21
710.2161614724
 31
0.0
  0
ARC
  5
22F
330
1F
100
AcDbEntity
  8
0
  6
Continuous
 62
     7
370
    25
100
AcDbCircle
 10
538.7896872407
 20
709.4161580731
 30
0.0
 40
0.7999999999998408
100
AcDbArc
 50
0.0
 51
90.0
  0
LINE
  5
230
330
1F
100
AcDbEntity
  8
0
  6
Continuous
 62
     7
370
    25
100
AcDbLine
 10
539.5896820493
 20
703.416150672
 30
0.0
 11
539.5896820493
 21
709.4161628314
 31
0.0
  0
ARC
  5
231
330
1F
100
AcDbEntity
  8
0
  6
Continuous
 62
     7
370
    25
100
AcDbCircle
 10
538.7896872407
 20
703.4161580731
 30
0.0
 40
0.8000000000001819
100
AcDbArc
 50
270.0
 51
0.0
  0
LINE
  5
232
330
1F
100
AcDbEntity
  8
0
  6
Continuous
 62
     7
370
    25
100
AcDbLine
 10
532.034137673
 20
702.616152031
 30
0.0
 11
538.7896834083
 21
702.616152031
 31
0.0
  0
LINE
  5
233
330
1F
100
AcDbEntity
  8
0
  6
Continuous
 62
     7
370
    25
100
AcDbLine
 10
532.034137673
 20
707.3494909831
 30
0.0
 11
532.034137673
 21
702.616152031
 31
0.0
  0
LINE
  5
234
330
1F
100
AcDbEntity
  8
0
  6
Continuous
 62
     7
370
    25
100
AcDbLine
 10
537.1896861263
 20
707.3494909831
 30
0.0
 11
532.034137673
 21
707.3494909831
 31
0.0
  0
ARC
  5
235
330
1F
100
AcDbEntity
  8
0
  6
Continuous
 62
     7
370
    25
100
AcDbCircle
 10
537.1896872407
 20
707.7494914331
 30
0.0
 40
0.4000000000000909
100
AcDbArc
 50
270.0
 51
0.0
  0
LINE
  5
236
330
1F
100
AcDbEntity
  8
0
  6
Continuous
 62
     7
370
    25
100
AcDbLine
 10
537.5896928974
 20
707.7939330168
 30
0.0
 11
537.5896928974
 21
707.7494977542
 31
0.0
  0
ARC
  5
237
330
1F
100
AcDbEntity
  8
0
  6
Continuous
 62
     7
370
    25
100
AcDbCircle
 10
537.1896872407
 20
707.7939358331
 30
0.0
 40
0.3999999999999773
100
AcDbArc
 50
0.0
 51
90.0
  0
LINE
  5
238
330
1F
100
AcDbEntity
  8
0
  6
Continuous
 62
     7
370
    25
100
AcDbLine
 10
537.5896928974
 20
705.0828306504
 30
0.0
 11
537.5896928974
 21
705.0383804865
 31
0.0
  0
LINE
  5
239
330
1F
100
AcDbEntity
  8
0
  6
Continuous
 62
     7
370
    25
100
AcDbLine
 10
534.434133596
 20
705.4828225203
 30
0.0
 11
537.1896861263
 21
705.4828225203
 31
0.0
  0
ARC
  5
23A
330
1F
100
AcDbEntity
  8
0
  6
Continuous
 62
     7
370
    25
100
AcDbCircle
 10
534.4341317107
 20
705.0828247131
 30
0.0
 40
0.4000000000000909
100
AcDbArc
 50
90.0
 51
180.0
  0
LINE
  5
23B
330
1F
100
AcDbEntity
  8
0
  6
Continuous
 62
     7
370
    25
100
AcDbLine
 10
534.0341268249
 20
705.0383804865
 30
0.0
 11
534.0341268249
 21
705.0828306504
 31
0.0
  0
ARC
  5
23C
330
1F
100
AcDbEntity
  8
0
  6
Continuous
 62
     7
370
    25
100
AcDbCircle
 10
534.4341317107
 20
705.0383803131
 30
0.0
 40
0.4000000000000909
100
AcDbArc
 50
180.0
 51
270.0
  0
LINE
  5
23D
330
1F
100
AcDbEntity
  8
0
  6
Continuous
 62
     7
370
    25
100
AcDbLine
 10
537.1896861263
 20
704.6383737155
 30
0.0
 11
534.434133596
 21
704.6383737155
 31
0.0
  0
ARC
  5
23E
330
1F
100
AcDbEntity
  8
0
  6
Continuous
 62
     7
370
    25
100
AcDbCircle
 10
537.1896872407
 20
705.0383803131
 30
0.0
 40
0.4000000000000909
100
AcDbArc
 50
270.0
 51
0.0
  0
LINE
  5
23F
330
1F
100
AcDbEntity
  8
0
  6
Continuous
 62
     7
370
    25
100
AcDbLine
 10
537.5896928974
 20
707.7494977542
 30
0.0
 11
537.3896895118
 21
707.7494977542
 31
0.0
  0
LINE
  5
240
330
1F
100
AcDbEntity
  8
0
  6
Continuous
 62
     7
370
    25
100
AcDbLine
 10
537.3896895118
 20
707.7494977542
 30
0.0
 11
537.3896895118
 21
707.7939330168
 31
0.0
  0
LINE
  5
241
330
1F
100
AcDbEntity
  8
0
  6
Continuous
 62
     7
370
    25
100
AcDbLine
 10
537.5896928974
 20
707.7939330168
 30
0.0
 11
537.3896895118
 21
707.7939330168
 31
0.0
  0
LINE
  5
242
330
1F
100
AcDbEntity
  8
0
  6
Continuous
 62
     7
370
    25
100
AcDbLine
 10
531.3896922536
 20
704.6383737155
 30
0.0
 11
531.3896922536
 21
702.616152031
 31
0.0
  0
LINE
  5
243
330
1F
100
AcDbEntity
  8
0
  6
Continuous
 62
     7
370
    25
100
AcDbLine
 10
531.3896922536
 20
702.616152031
 30
0.0
 11
531.1896888681
 21
702.616152031
 31
0.0
  0
LINE
  5
244
330
1F
100
AcDbEntity
  8
0
  6
Continuous
 62
     7
370
    25
100
AcDbLine
 10
531.1896888681
 20
702.616152031
 30
0.0
 11
531.1896888681
 21
704.6383737155
 31
0.0
  0
LINE
  5
245
330
1F
100
AcDbEntity
  8
0
  6
Continuous
 62
     7
370
    25
100
AcDbLine
 10
531.3896922536
 20
704.6383737155
 30
0.0
 11
531.1896888681
 21
704.6383737155
 31
0.0
  0
ARC
  5
246
330
1F
100
AcDbEntity
  8
0
  6
Continuous
 62
     7
370
    25
100
AcDbCircle
 10
503.7674649907
 20
705.0383803131
 30
0.0
 40
0.4000000000000909
100
AcDbArc
 50
270.0
 51
0.0
  0
LINE
  5
247
330
1F
100
AcDbEntity
  8
0
  6
Continuous
 62
     7
370
    25
100
AcDbLine
 10
504.1674612232
 20
705.0828306504
 30
0.0
 11
504.1674612232
 21
705.0383804865
 31
0.0
  0
ARC
  5
248
330
1F
100
AcDbEntity
  8
0
  6
Continuous
 62
     7
370
    25
100
AcDbCircle
 10
503.7674649907
 20
705.0828247131
 30
0.0
 40
0.4000000000000909
100
AcDbArc
 50
0.0
 51
90.0
  0
LINE
  5
249
330
1F
100
AcDbEntity
  8
0
  6
Continuous
 62
     7
370
    25
100
AcDbLine
 10
498.6563561626
 20
705.4828225203
 30
0.0
 11
503.7674693533
 21
705.4828225203
 31
0.0
  0
LINE
  5
24A
330
1F
100
AcDbEntity
  8
0
  6
Continuous
 62
     7
370
    25
100
AcDbLine
 10
498.6563561626
 20
709.4161628314
 30
0.0
 11
498.6563561626
 21
705.4828225203
 31
0.0
  0
LINE
  5
24B
330
1F
100
AcDbEntity
  8
0
  6
Continuous
 62
     7
370
    25
100
AcDbLine
 10
506.1674652763
 20
710.2161614724
 30
0.0
 11
499.4563548036
 21
710.2161614724
 31
0.0
  0
LINE
  5
24C
330
1F
100
AcDbEntity
  8
0
  6
Continuous
 62
     7
370
    25
100
AcDbLine
 10
506.1674652763
 20
708.1939397879
 30
0.0
 11
506.1674652763
 21
710.2161614724
 31
0.0
  0
LINE
  5
24D
330
1F
100
AcDbEntity
  8
0
  6
Continuous
 62
     7
370
    25
100
AcDbLine
 10
501.0563520856
 20
708.1939397879
 30
0.0
 11
506.1674652763
 21
708.1939397879
 31
0.0
  0
ARC
  5
24E
330
1F
100
AcDbEntity
  8
0
  6
Continuous
 62
     7
370
    25
100
AcDbCircle
 10
501.0563538707
 20
707.7939358331
 30
0.0
 40
0.4000000000000341
100
AcDbArc
 50
90.0
 51
180.0
  0
LINE
  5
24F
330
1F
100
AcDbEntity
  8
0
  6
Continuous
 62
     7
370
    25
100
AcDbLine
 10
500.6563602157
 20
707.7494977542
 30
0.0
 11
500.6563602157
 21
707.7939330168
 31
0.0
  0
LINE
  5
250
330
1F
100
AcDbEntity
  8
0
  6
Continuous
 62
     7
370
    25
100
AcDbLine
 10
506.1674652763
 20
702.616152031
 30
0.0
 11
506.1674652763
 21
707.3494909831
 31
0.0
  0
LINE
  5
251
330
1F
100
AcDbEntity
  8
0
  6
Continuous
 62
     7
370
    25
100
AcDbLine
 10
499.4563548036
 20
702.616152031
 30
0.0
 11
506.1674652763
 21
702.616152031
 31
0.0
  0
LINE
  5
252
330
1F
100
AcDbEntity
  8
0
  6
Continuous
 62
     7
370
    25
100
AcDbLine
 10
498.6563561626
 20
704.6383737155
 30
0.0
 11
498.6563561626
 21
703.416150672
 31
0.0
  0
LINE
  5
253
330
1F
100
AcDbEntity
  8
0
  6
Continuous
 62
     7
370
    25
100
AcDbLine
 10
498.4563527771
 20
705.4828225203
 30
0.0
 11
498.4563527771
 21
709.4161628314
 31
0.0
  0
LINE
  5
254
330
1F
100
AcDbEntity
  8
0
  6
Continuous
 62
     7
370
    25
100
AcDbLine
 10
498.4563527771
 20
705.4828225203
 30
0.0
 11
498.6563561626
 21
705.4828225203
 31
0.0
  0
ARC
  5
255
330
1F
100
AcDbEntity
  8
0
  6
Continuous
 62
     7
370
    25
100
AcDbCircle
 10
537.1896872407
 20
707.7939358331
 30
0.0
 40
0.2000000000000455
100
AcDbArc
 50
0.0
 51
90.0
  0
LINE
  5
256
330
1F
100
AcDbEntity
  8
0
  6
Continuous
 62
     7
370
    25
100
AcDbLine
 10
537.1896861263
 20
708.1939397879
 30
0.0
 11
537.1896861263
 21
707.9939364024
 31
0.0
  0
LINE
  5
257
330
1F
100
AcDbEntity
  8
0
  6
Continuous
 62
     7
370
    25
100
AcDbLine
 10
531.8341342874
 20
708.1939397879
 30
0.0
 11
532.034137673
 21
708.1939397879
 31
0.0
  0
LINE
  5
258
330
1F
100
AcDbEntity
  8
0
  6
Continuous
 62
     7
370
    25
100
AcDbLine
 10
532.034137673
 20
707.9939364024
 30
0.0
 11
532.034137673
 21
708.1939397879
 31
0.0
  0
ARC
  5
259
330
1F
100
AcDbEntity
  8
0
  6
Continuous
 62
     7
370
    25
100
AcDbCircle
 10
532.0341316407
 20
708.1939358331
 30
0.0
 40
0.2000000000000455
100
AcDbArc
 50
180.0
 51
270.0
  0
LINE
  5
25A
330
1F
100
AcDbEntity
  8
0
  6
Continuous
 62
     7
370
    25
100
AcDbLine
 10
531.1896888681
 20
704.6383737155
 30
0.0
 11
527.5452373691
 21
704.6383737155
 31
0.0
  0
LINE
  5
25B
330
1F
100
AcDbEntity
  8
0
  6
Continuous
 62
     7
370
    25
100
AcDbLine
 10
527.5452373691
 20
704.6383737155
 30
0.0
 11
527.5452373691
 21
704.838377101
 31
0.0
  0
LINE
  5
25C
330
1F
100
AcDbEntity
  8
0
  6
Continuous
 62
     7
370
    25
100
AcDbLine
 10
527.5452373691
 20
704.838377101
 30
0.0
 11
531.1896888681
 21
704.838377101
 31
0.0
  0
LINE
  5
25D
330
1F
100
AcDbEntity
  8
0
  6
Continuous
 62
     7
370
    25
100
AcDbLine
 10
531.1896888681
 20
704.838377101
 30
0.0
 11
531.1896888681
 21
704.6383737155
 31
0.0
  0
LINE
  5
25E
330
1F
100
AcDbEntity
  8
0
  6
Continuous
 62
     7
370
    25
100
AcDbLine
 10
537.1896861263
 20
704.6383737155
 30
0.0
 11
537.1896861263
 21
704.838377101
 31
0.0
  0
ARC
  5
25F
330
1F
100
AcDbEntity
  8
0
  6
Continuous
 62
     7
370
    25
100
AcDbCircle
 10
537.1896872407
 20
705.0383803131
 30
0.0
 40
0.2000000000001592
100
AcDbArc
 50
270.0
 51
0.0
  0
LINE
  5
260
330
1F
100
AcDbEntity
  8
0
  6
Continuous
 62
     7
370
    25
100
AcDbLine
 10
537.5896928974
 20
705.0383804865
 30
0.0
 11
537.3896895118
 21
705.0383804865
 31
0.0
  0
ARC
  5
261
330
1F
100
AcDbEntity
  8
0
  6
Continuous
 62
     7
370
    25
100
AcDbCircle
 10
507.0119093907
 20
710.2161580731
 30
0.0
 40
0.2000000000000455
100
AcDbArc
 50
90.0
 51
180.0
  0
LINE
  5
262
330
1F
100
AcDbEntity
  8
0
  6
Continuous
 62
     7
370
    25
100
AcDbLine
 10
506.3674686618
 20
710.2161614724
 30
0.0
 11
506.1674652763
 21
710.2161614724
 31
0.0
  0
LINE
  5
263
330
1F
100
AcDbEntity
  8
0
  6
Continuous
 62
     7
370
    25
100
AcDbLine
 10
506.1674652763
 20
710.4161648579
 30
0.0
 11
506.1674652763
 21
710.2161614724
 31
0.0
  0
ARC
  5
264
330
1F
100
AcDbEntity
  8
0
  6
Continuous
 62
     7
370
    25
100
AcDbCircle
 10
506.1674649907
 20
710.2161580731
 30
0.0
 40
0.2000000000000455
100
AcDbArc
 50
0.0
 51
90.0
  0
LINE
  5
265
330
1F
100
AcDbEntity
  8
0
  6
Continuous
 62
     7
370
    25
100
AcDbLine
 10
517.3674611517
 20
705.0828306504
 30
0.0
 11
517.5674645372
 21
705.0828306504
 31
0.0
  0
LINE
  5
266
330
1F
100
AcDbEntity
  8
0
  6
Continuous
 62
     7
370
    25
100
AcDbLine
 10
517.5674645372
 20
705.0828306504
 30
0.0
 11
517.5674645372
 21
705.0383804865
 31
0.0
  0
LINE
  5
267
330
1F
100
AcDbEntity
  8
0
  6
Continuous
 62
     7
370
    25
100
AcDbLine
 10
517.3674611517
 20
705.0383804865
 30
0.0
 11
517.5674645372
 21
705.0383804865
 31
0.0
  0
LINE
  5
268
330
1F
100
AcDbEntity
  8
0
  6
Continuous
 62
     7
370
    25
100
AcDbLine
 10
532.034137673
 20
707.3494909831
 30
0.0
 11
532.034137673
 21
707.5494943686
 31
0.0
  0
LINE
  5
269
330
1F
100
AcDbEntity
  8
0
  6
Continuous
 62
     7
370
    25
100
AcDbLine
 10
532.034137673
 20
707.5494943686
 30
0.0
 11
537.1896861263
 21
707.5494943686
 31
0.0
  0
LINE
  5
26A
330
1F
100
AcDbEntity
  8
0
  6
Continuous
 62
     7
370
    25
100
AcDbLine
 10
537.1896861263
 20
707.3494909831
 30
0.0
 11
537.1896861263
 21
707.5494943686
 31
0.0
  0
LINE
  5
26B
330
1F
100
AcDbEntity
  8
0
  6
Continuous
 62
     7
370
    25
100
AcDbLine
 10
520.523020453
 20
707.9939364024
 30
0.0
 11
515.3674719997
 21
707.9939364024
 31
0.0
  0
LINE
  5
26C
330
1F
100
AcDbEntity
  8
0
  6
Continuous
 62
     7
370
    25
100
AcDbLine
 10
506.3674686618
 20
710.2161614724
 30
0.0
 11
506.3674686618
 21
708.1939397879
 31
0.0
  0
LINE
  5
26D
330
1F
100
AcDbEntity
  8
0
  6
Continuous
 62
     7
370
    25
100
AcDbLine
 10
506.3674686618
 20
708.1939397879
 30
0.0
 11
506.1674652763
 21
708.1939397879
 31
0.0
  0
ARC
  5
26E
330
1F
100
AcDbEntity
  8
0
  6
Continuous
 62
     7
370
    25
100
AcDbCircle
 10
515.3674649107
 20
710.2161580731
 30
0.0
 40
0.2000000000000455
100
AcDbArc
 50
90.0
 51
180.0
  0
LINE
  5
26F
330
1F
100
AcDbEntity
  8
0
  6
Continuous
 62
     7
370
    25
100
AcDbLine
 10
515.3674719997
 20
710.2161614724
 30
0.0
 11
515.3674719997
 21
710.4161648579
 31
0.0
  0
ARC
  5
270
330
1F
100
AcDbEntity
  8
0
  6
Continuous
 62
     7
370
    25
100
AcDbCircle
 10
503.7674649907
 20
705.0383803131
 30
0.0
 40
0.2000000000001023
100
AcDbArc
 50
270.0
 51
0.0
  0
LINE
  5
271
330
1F
100
AcDbEntity
  8
0
  6
Continuous
 62
     7
370
    25
100
AcDbLine
 10
504.1674612232
 20
705.0383804865
 30
0.0
 11
503.9674578376
 21
705.0383804865
 31
0.0
  0
LINE
  5
272
330
1F
100
AcDbEntity
  8
0
  6
Continuous
 62
     7
370
    25
100
AcDbLine
 10
532.034137673
 20
710.4161648579
 30
0.0
 11
532.034137673
 21
710.2161614724
 31
0.0
  0
LINE
  5
273
330
1F
100
AcDbEntity
  8
0
  6
Continuous
 62
     7
370
    25
100
AcDbLine
 10
531.8341342874
 20
710.2161614724
 30
0.0
 11
532.034137673
 21
710.2161614724
 31
0.0
  0
ARC
  5
274
330
1F
100
AcDbEntity
  8
0
  6
Continuous
 62
     7
370
    25
100
AcDbCircle
 10
532.0341316407
 20
710.2161580731
 30
0.0
 40
0.2000000000000455
100
AcDbArc
 50
90.0
 51
180.0
  0
ARC
  5
275
330
1F
100
AcDbEntity
  8
0
  6
Continuous
 62
     7
370
    25
100
AcDbCircle
 10
508.6785761107
 20
707.7939358331
 30
0.0
 40
0.2000000000000455
100
AcDbArc
 50
0.0
 51
90.0
  0
LINE
  5
276
330
1F
100
AcDbEntity
  8
0
  6
Continuous
 62
     7
370
    25
100
AcDbLine
 10
508.6785791584
 20
707.9939364024
 30
0.0
 11
508.6785791584
 21
708.1939397879
 31
0.0
  0
ARC
  5
277
330
1F
100
AcDbEntity
  8
0
  6
Continuous
 62
     7
370
    25
100
AcDbCircle
 10
508.6785761107
 20
707.7939358331
 30
0.0
 40
0.4000000000000909
100
AcDbArc
 50
0.0
 51
90.0
  0
LINE
  5
278
330
1F
100
AcDbEntity
  8
0
  6
Continuous
 62
     7
370
    25
100
AcDbLine
 10
508.8785825439
 20
707.7939330168
 30
0.0
 11
509.0785710283
 21
707.7939330168
 31
0.0
  0
LINE
  5
279
330
1F
100
AcDbEntity
  8
0
  6
Continuous
 62
     7
370
    25
100
AcDbLine
 10
500.8563487001
 20
707.7939330168
 30
0.0
 11
500.8563487001
 21
707.7494977542
 31
0.0
  0
LINE
  5
27A
330
1F
100
AcDbEntity
  8
0
  6
Continuous
 62
     7
370
    25
100
AcDbLine
 10
500.8563487001
 20
707.7939330168
 30
0.0
 11
500.6563602157
 21
707.7939330168
 31
0.0
  0
LINE
  5
27B
330
1F
100
AcDbEntity
  8
0
  6
Continuous
 62
     7
370
    25
100
AcDbLine
 10
506.1674652763
 20
707.9939364024
 30
0.0
 11
506.1674652763
 21
708.1939397879
 31
0.0
  0
ARC
  5
27C
330
1F
100
AcDbEntity
  8
0
  6
Continuous
 62
     7
370
    25
100
AcDbCircle
 10
506.1674649907
 20
708.1939358331
 30
0.0
 40
0.2000000000001023
100
AcDbArc
 50
270.0
 51
0.0
  0
LINE
  5
27D
330
1F
100
AcDbEntity
  8
0
  6
Continuous
 62
     7
370
    25
100
AcDbLine
 10
515.1674686142
 20
702.616152031
 30
0.0
 11
515.3674719997
 21
702.616152031
 31
0.0
  0
LINE
  5
27E
330
1F
100
AcDbEntity
  8
0
  6
Continuous
 62
     7
370
    25
100
AcDbLine
 10
515.3674719997
 20
702.4161635466
 30
0.0
 11
515.3674719997
 21
702.616152031
 31
0.0
  0
ARC
  5
27F
330
1F
100
AcDbEntity
  8
0
  6
Continuous
 62
     7
370
    25
100
AcDbCircle
 10
515.3674649107
 20
702.6161580731
 30
0.0
 40
0.1999999999999318
100
AcDbArc
 50
180.0
 51
270.0
  0
LINE
  5
280
330
1F
100
AcDbEntity
  8
0
  6
Continuous
 62
     7
370
    25
100
AcDbLine
 10
517.7674679227
 20
705.4828225203
 30
0.0
 11
517.7674679227
 21
705.2828191348
 31
0.0
  0
ARC
  5
281
330
1F
100
AcDbEntity
  8
0
  6
Continuous
 62
     7
370
    25
100
AcDbCircle
 10
517.7674649807
 20
705.0828247131
 30
0.0
 40
0.2000000000000455
100
AcDbArc
 50
90.0
 51
180.0
  0
LINE
  5
282
330
1F
100
AcDbEntity
  8
0
  6
Continuous
 62
     7
370
    25
100
AcDbLine
 10
520.523020453
 20
705.2828191348
 30
0.0
 11
517.7674679227
 21
705.2828191348
 31
0.0
  0
LINE
  5
283
330
1F
100
AcDbEntity
  8
0
  6
Continuous
 62
     7
370
    25
100
AcDbLine
 10
520.523020453
 20
705.2828191348
 30
0.0
 11
520.523020453
 21
705.4828225203
 31
0.0
  0
LINE
  5
284
330
1F
100
AcDbEntity
  8
0
  6
Continuous
 62
     7
370
    25
100
AcDbLine
 10
532.034137673
 20
707.3494909831
 30
0.0
 11
531.8341342874
 21
707.3494909831
 31
0.0
  0
ARC
  5
285
330
1F
100
AcDbEntity
  8
0
  6
Continuous
 62
     7
370
    25
100
AcDbCircle
 10
532.0341316407
 20
707.3494914331
 30
0.0
 40
0.2000000000000455
100
AcDbArc
 50
90.0
 51
180.0
  0
LINE
  5
286
330
1F
100
AcDbEntity
  8
0
  6
Continuous
 62
     7
370
    25
100
AcDbLine
 10
515.1674686142
 20
702.616152031
 30
0.0
 11
515.1674686142
 21
707.3494909831
 31
0.0
  0
LINE
  5
287
330
1F
100
AcDbEntity
  8
0
  6
Continuous
 62
     7
370
    25
100
AcDbLine
 10
515.1674686142
 20
707.3494909831
 30
0.0
 11
515.3674719997
 21
707.3494909831
 31
0.0
  0
LINE
  5
288
330
1F
100
AcDbEntity
  8
0
  6
Continuous
 62
     7
370
    25
100
AcDbLine
 10
504.1674612232
 20
705.0828306504
 30
0.0
 11
503.9674578376
 21
705.0828306504
 31
0.0
  0
ARC
  5
289
330
1F
100
AcDbEntity
  8
0
  6
Continuous
 62
     7
370
    25
100
AcDbCircle
 10
503.7674649907
 20
705.0828247131
 30
0.0
 40
0.2000000000001023
100
AcDbArc
 50
0.0
 51
90.0
  0
LINE
  5
28A
330
1F
100
AcDbEntity
  8
0
  6
Continuous
 62
     7
370
    25
100
AcDbLine
 10
503.7674693533
 20
705.4828225203
 30
0.0
 11
503.7674693533
 21
705.2828191348
 31
0.0
  0
LINE
  5
28B
330
1F
100
AcDbEntity
  8
0
  6
Continuous
 62
     7
370
    25
100
AcDbLine
 10
515.3674719997
 20
707.5494943686
 30
0.0
 11
515.3674719997
 21
707.3494909831
 31
0.0
  0
ARC
  5
28C
330
1F
100
AcDbEntity
  8
0
  6
Continuous
 62
     7
370
    25
100
AcDbCircle
 10
515.3674649107
 20
707.3494914331
 30
0.0
 40
0.2000000000000455
100
AcDbArc
 50
90.0
 51
180.0
  0
ARC
  5
28D
330
1F
100
AcDbEntity
  8
0
  6
Continuous
 62
     7
370
    25
100
AcDbCircle
 10
527.5452425907
 20
705.0383803131
 30
0.0
 40
0.4000000000000909
100
AcDbArc
 50
180.0
 51
270.0
  0
LINE
  5
28E
330
1F
100
AcDbEntity
  8
0
  6
Continuous
 62
     7
370
    25
100
AcDbLine
 10
527.1452454992
 20
705.0383804865
 30
0.0
 11
527.3452488847
 21
705.0383804865
 31
0.0
  0
ARC
  5
28F
330
1F
100
AcDbEntity
  8
0
  6
Continuous
 62
     7
370
    25
100
AcDbCircle
 10
527.5452425907
 20
705.0383803131
 30
0.0
 40
0.1999999999999318
100
AcDbArc
 50
180.0
 51
270.0
  0
LINE
  5
290
330
1F
100
AcDbEntity
  8
0
  6
Continuous
 62
     7
370
    25
100
AcDbLine
 10
531.8341342874
 20
708.1939397879
 30
0.0
 11
531.8341342874
 21
710.2161614724
 31
0.0
  0
LINE
  5
291
330
1F
100
AcDbEntity
  8
0
  6
Continuous
 62
     7
370
    25
100
AcDbLine
 10
503.9674578376
 20
705.0383804865
 30
0.0
 11
503.9674578376
 21
705.0828306504
 31
0.0
  0
LINE
  5
292
330
1F
100
AcDbEntity
  8
0
  6
Continuous
 62
     7
370
    25
100
AcDbLine
 10
523.7674651809
 20
710.2161614724
 30
0.0
 11
523.7674651809
 21
702.616152031
 31
0.0
  0
LINE
  5
293
330
1F
100
AcDbEntity
  8
0
  6
Continuous
 62
     7
370
    25
100
AcDbLine
 10
523.5674617954
 20
702.616152031
 30
0.0
 11
523.7674651809
 21
702.616152031
 31
0.0
  0
LINE
  5
294
330
1F
100
AcDbEntity
  8
0
  6
Continuous
 62
     7
370
    25
100
AcDbLine
 10
523.5674617954
 20
702.616152031
 30
0.0
 11
523.5674617954
 21
710.2161614724
 31
0.0
  0
LINE
  5
295
330
1F
100
AcDbEntity
  8
0
  6
Continuous
 62
     7
370
    25
100
AcDbLine
 10
523.7674651809
 20
710.2161614724
 30
0.0
 11
523.5674617954
 21
710.2161614724
 31
0.0
  0
LINE
  5
296
330
1F
100
AcDbEntity
  8
0
  6
Continuous
 62
     7
370
    25
100
AcDbLine
 10
512.8563581176
 20
708.1939397879
 30
0.0
 11
514.5230231948
 21
708.1939397879
 31
0.0
  0
ARC
  5
297
330
1F
100
AcDbEntity
  8
0
  6
Continuous
 62
     7
370
    25
100
AcDbCircle
 10
512.8563537907
 20
707.7939358331
 30
0.0
 40
0.3999999999999773
100
AcDbArc
 50
90.0
 51
180.0
  0
LINE
  5
298
330
1F
100
AcDbEntity
  8
0
  6
Continuous
 62
     7
370
    25
100
AcDbLine
 10
512.4563513465
 20
702.616152031
 30
0.0
 11
512.4563513465
 21
707.7939330168
 31
0.0
  0
LINE
  5
299
330
1F
100
AcDbEntity
  8
0
  6
Continuous
 62
     7
370
    25
100
AcDbLine
 10
509.0785710283
 20
707.7939330168
 30
0.0
 11
509.0785710283
 21
702.616152031
 31
0.0
  0
LINE
  5
29A
330
1F
100
AcDbEntity
  8
0
  6
Continuous
 62
     7
370
    25
100
AcDbLine
 10
507.0119140812
 20
708.1939397879
 30
0.0
 11
508.6785791584
 21
708.1939397879
 31
0.0
  0
LINE
  5
29B
330
1F
100
AcDbEntity
  8
0
  6
Continuous
 62
     7
370
    25
100
AcDbLine
 10
514.5230231948
 20
708.1939397879
 30
0.0
 11
514.5230231948
 21
710.2161614724
 31
0.0
  0
LINE
  5
29C
330
1F
100
AcDbEntity
  8
0
  6
Continuous
 62
     7
370
    25
100
AcDbLine
 10
534.2341302105
 20
705.0828306504
 30
0.0
 11
534.2341302105
 21
705.0383804865
 31
0.0
  0
LINE
  5
29D
330
1F
100
AcDbEntity
  8
0
  6
Continuous
 62
     7
370
    25
100
AcDbLine
 10
534.0341268249
 20
705.0383804865
 30
0.0
 11
534.2341302105
 21
705.0383804865
 31
0.0
  0
LINE
  5
29E
330
1F
100
AcDbEntity
  8
0
  6
Continuous
 62
     7
370
    25
100
AcDbLine
 10
534.2341302105
 20
705.0828306504
 30
0.0
 11
534.0341268249
 21
705.0828306504
 31
0.0
  0
LINE
  5
29F
330
1F
100
AcDbEntity
  8
0
  6
Continuous
 62
     7
370
    25
100
AcDbLine
 10
522.9230163761
 20
710.4161648579
 30
0.0
 11
522.9230163761
 21
710.2161614724
 31
0.0
  0
ARC
  5
2A0
330
1F
100
AcDbEntity
  8
0
  6
Continuous
 62
     7
370
    25
100
AcDbCircle
 10
522.9230205107
 20
710.2161580731
 30
0.0
 40
0.2000000000000455
100
AcDbArc
 50
0.0
 51
90.0
  0
LINE
  5
2A1
330
1F
100
AcDbEntity
  8
0
  6
Continuous
 62
     7
370
    25
100
AcDbLine
 10
523.7674651809
 20
702.616152031
 30
0.0
 11
531.1896888681
 21
702.616152031
 31
0.0
  0
LINE
  5
2A2
330
1F
100
AcDbEntity
  8
0
  6
Continuous
 62
     7
370
    25
100
AcDbLine
 10
527.1452454992
 20
710.2161614724
 30
0.0
 11
523.7674651809
 21
710.2161614724
 31
0.0
  0
LINE
  5
2A3
330
1F
100
AcDbEntity
  8
0
  6
Continuous
 62
     7
370
    25
100
AcDbLine
 10
527.1452454992
 20
705.0383804865
 30
0.0
 11
527.1452454992
 21
710.2161614724
 31
0.0
  0
ARC
  5
2A4
330
1F
100
AcDbEntity
  8
0
  6
Continuous
 62
     7
370
    25
100
AcDbCircle
 10
517.7674649807
 20
705.0383803131
 30
0.0
 40
0.2000000000000455
100
AcDbArc
 50
180.0
 51
270.0
  0
LINE
  5
2A5
330
1F
100
AcDbEntity
  8
0
  6
Continuous
 62
     7
370
    25
100
AcDbLine
 10
517.7674679227
 20
704.6383737155
 30
0.0
 11
517.7674679227
 21
704.838377101
 31
0.0
  0
LINE
  5
2A6
330
1F
100
AcDbEntity
  8
0
  6
Continuous
 62
     7
370
    25
100
AcDbLine
 10
520.7230238386
 20
705.0383804865
 30
0.0
 11
520.7230238386
 21
705.0828306504
 31
0.0
  0
LINE
  5
2A7
330
1F
100
AcDbEntity
  8
0
  6
Continuous
 62
     7
370
    25
100
AcDbLine
 10
520.7230238386
 20
705.0828306504
 30
0.0
 11
520.9230272241
 21
705.0828306504
 31
0.0
  0
LINE
  5
2A8
330
1F
100
AcDbEntity
  8
0
  6
Continuous
 62
     7
370
    25
100
AcDbLine
 10
520.7230238386
 20
705.0383804865
 30
0.0
 11
520.9230272241
 21
705.0383804865
 31
0.0
  0
ARC
  5
2A9
330
1F
100
AcDbEntity
  8
0
  6
Continuous
 62
     7
370
    25
100
AcDbCircle
 10
514.5230205107
 20
710.2161580731
 30
0.0
 40
0.2000000000000455
100
AcDbArc
 50
0.0
 51
90.0
  0
LINE
  5
2AA
330
1F
100
AcDbEntity
  8
0
  6
Continuous
 62
     7
370
    25
100
AcDbLine
 10
514.5230231948
 20
710.2161614724
 30
0.0
 11
514.7230265804
 21
710.2161614724
 31
0.0
  0
LINE
  5
2AB
330
1F
100
AcDbEntity
  8
0
  6
Continuous
 62
     7
370
    25
100
AcDbLine
 10
514.5230231948
 20
708.1939397879
 30
0.0
 11
514.5230231948
 21
707.9939364024
 31
0.0
  0
LINE
  5
2AC
330
1F
100
AcDbEntity
  8
0
  6
Continuous
 62
     7
370
    25
100
AcDbLine
 10
514.5230231948
 20
707.9939364024
 30
0.0
 11
512.8563581176
 21
707.9939364024
 31
0.0
  0
LINE
  5
2AD
330
1F
100
AcDbEntity
  8
0
  6
Continuous
 62
     7
370
    25
100
AcDbLine
 10
512.8563581176
 20
708.1939397879
 30
0.0
 11
512.8563581176
 21
707.9939364024
 31
0.0
  0
LINE
  5
2AE
330
1F
100
AcDbEntity
  8
0
  6
Continuous
 62
     7
370
    25
100
AcDbLine
 10
499.4563548036
 20
710.4161648579
 30
0.0
 11
506.1674652763
 21
710.4161648579
 31
0.0
  0
LINE
  5
2AF
330
1F
100
AcDbEntity
  8
0
  6
Continuous
 62
     7
370
    25
100
AcDbLine
 10
512.4563513465
 20
702.616152031
 30
0.0
 11
512.6563547321
 21
702.616152031
 31
0.0
  0
ARC
  5
2B0
330
1F
100
AcDbEntity
  8
0
  6
Continuous
 62
     7
370
    25
100
AcDbCircle
 10
512.4563537907
 20
702.6161580731
 30
0.0
 40
0.2000000000000455
100
AcDbArc
 50
270.0
 51
0.0
  0
LINE
  5
2B1
330
1F
100
AcDbEntity
  8
0
  6
Continuous
 62
     7
370
    25
100
AcDbLine
 10
531.1896888681
 20
702.4161635466
 30
0.0
 11
531.1896888681
 21
702.616152031
 31
0.0
  0
ARC
  5
2B2
330
1F
100
AcDbEntity
  8
0
  6
Continuous
 62
     7
370
    25
100
AcDbCircle
 10
531.1896872407
 20
702.6161580731
 30
0.0
 40
0.2000000000001592
100
AcDbArc
 50
270.0
 51
0.0
  0
LINE
  5
2B3
330
1F
100
AcDbEntity
  8
0
  6
Continuous
 62
     7
370
    25
100
AcDbLine
 10
506.1674652763
 20
707.9939364024
 30
0.0
 11
501.0563520856
 21
707.9939364024
 31
0.0
  0
LINE
  5
2B4
330
1F
100
AcDbEntity
  8
0
  6
Continuous
 62
     7
370
    25
100
AcDbLine
 10
501.0563520856
 20
707.9939364024
 30
0.0
 11
501.0563520856
 21
708.1939397879
 31
0.0
  0
LINE
  5
2B5
330
1F
100
AcDbEntity
  8
0
  6
Continuous
 62
     7
370
    25
100
AcDbLine
 10
520.523020453
 20
707.3494909831
 30
0.0
 11
520.523020453
 21
707.5494943686
 31
0.0
  0
ARC
  5
2B6
330
1F
100
AcDbEntity
  8
0
  6
Continuous
 62
     7
370
    25
100
AcDbCircle
 10
520.5230205107
 20
707.7494914331
 30
0.0
 40
0.2000000000000455
100
AcDbArc
 50
270.0
 51
0.0
  0
LINE
  5
2B7
330
1F
100
AcDbEntity
  8
0
  6
Continuous
 62
     7
370
    25
100
AcDbLine
 10
520.9230272241
 20
707.7494977542
 30
0.0
 11
520.7230238386
 21
707.7494977542
 31
0.0
  0
LINE
  5
2B8
330
1F
100
AcDbEntity
  8
0
  6
Continuous
 62
     7
370
    25
100
AcDbLine
 10
537.1896861263
 20
705.2828191348
 30
0.0
 11
534.434133596
 21
705.2828191348
 31
0.0
  0
LINE
  5
2B9
330
1F
100
AcDbEntity
  8
0
  6
Continuous
 62
     7
370
    25
100
AcDbLine
 10
534.434133596
 20
705.2828191348
 30
0.0
 11
534.434133596
 21
705.4828225203
 31
0.0
  0
LINE
  5
2BA
330
1F
100
AcDbEntity
  8
0
  6
Continuous
 62
     7
370
    25
100
AcDbLine
 10
512.4563513465
 20
707.7939330168
 30
0.0
 11
512.6563547321
 21
707.7939330168
 31
0.0
  0
LINE
  5
2BB
330
1F
100
AcDbEntity
  8
0
  6
Continuous
 62
     7
370
    25
100
AcDbLine
 10
512.6563547321
 20
707.7939330168
 30
0.0
 11
512.6563547321
 21
702.616152031
 31
0.0
  0
LINE
  5
2BC
330
1F
100
AcDbEntity
  8
0
  6
Continuous
 62
     7
370
    25
100
AcDbLine
 10
508.8785825439
 20
702.616152031
 30
0.0
 11
508.8785825439
 21
707.7939330168
 31
0.0
  0
LINE
  5
2BD
330
1F
100
AcDbEntity
  8
0
  6
Continuous
 62
     7
370
    25
100
AcDbLine
 10
498.4563527771
 20
703.416150672
 30
0.0
 11
498.4563527771
 21
704.6383737155
 31
0.0
  0
LINE
  5
2BE
330
1F
100
AcDbEntity
  8
0
  6
Continuous
 62
     7
370
    25
100
AcDbLine
 10
538.7896834083
 20
702.4161635466
 30
0.0
 11
538.7896834083
 21
702.616152031
 31
0.0
  0
LINE
  5
2BF
330
1F
100
AcDbEntity
  8
0
  6
Continuous
 62
     7
370
    25
100
AcDbLine
 10
538.7896834083
 20
702.4161635466
 30
0.0
 11
532.034137673
 21
702.4161635466
 31
0.0
  0
LINE
  5
2C0
330
1F
100
AcDbEntity
  8
0
  6
Continuous
 62
     7
370
    25
100
AcDbLine
 10
532.034137673
 20
702.616152031
 30
0.0
 11
532.034137673
 21
702.4161635466
 31
0.0
  0
LINE
  5
2C1
330
1F
100
AcDbEntity
  8
0
  6
Continuous
 62
     7
370
    25
100
AcDbLine
 10
506.3674686618
 20
707.3494909831
 30
0.0
 11
506.3674686618
 21
702.616152031
 31
0.0
  0
LINE
  5
2C2
330
1F
100
AcDbEntity
  8
0
  6
Continuous
 62
     7
370
    25
100
AcDbLine
 10
506.1674652763
 20
702.616152031
 30
0.0
 11
506.3674686618
 21
702.616152031
 31
0.0
  0
ARC
  5
2C3
330
1F
100
AcDbEntity
  8
0
  6
Continuous
 62
     7
370
    25
100
AcDbCircle
 10
512.8563537907
 20
707.7939358331
 30
0.0
 40
0.2000000000000455
100
AcDbArc
 50
90.0
 51
180.0
  0
ARC
  5
2C4
330
1F
100
AcDbEntity
  8
0
  6
Continuous
 62
     7
370
    25
100
AcDbCircle
 10
537.1896872407
 20
707.7494914331
 30
0.0
 40
0.2000000000001592
100
AcDbArc
 50
270.0
 51
0.0
  0
ARC
  5
2C5
330
1F
100
AcDbEntity
  8
0
  6
Continuous
 62
     7
370
    25
100
AcDbCircle
 10
538.7896872407
 20
709.4161580731
 30
0.0
 40
1.0
100
AcDbArc
 50
0.0
 51
90.0
  0
LINE
  5
2C6
330
1F
100
AcDbEntity
  8
0
  6
Continuous
 62
     7
370
    25
100
AcDbLine
 10
539.7896854349
 20
709.4161628314
 30
0.0
 11
539.5896820493
 21
709.4161628314
 31
0.0
  0
LINE
  5
2C7
330
1F
100
AcDbEntity
  8
0
  6
Continuous
 62
     7
370
    25
100
AcDbLine
 10
538.7896834083
 20
710.4161648579
 30
0.0
 11
538.7896834083
 21
710.2161614724
 31
0.0
  0
LINE
  5
2C8
330
1F
100
AcDbEntity
  8
0
  6
Continuous
 62
     7
370
    25
100
AcDbLine
 10
537.1896861263
 20
707.9939364024
 30
0.0
 11
532.034137673
 21
707.9939364024
 31
0.0
  0
LINE
  5
2C9
330
1F
100
AcDbEntity
  8
0
  6
Continuous
 62
     7
370
    25
100
AcDbLine
 10
507.0119140812
 20
707.9939364024
 30
0.0
 11
507.0119140812
 21
708.1939397879
 31
0.0
  0
ARC
  5
2CA
330
1F
100
AcDbEntity
  8
0
  6
Continuous
 62
     7
370
    25
100
AcDbCircle
 10
507.0119093907
 20
708.1939358331
 30
0.0
 40
0.2000000000001023
100
AcDbArc
 50
180.0
 51
270.0
  0
ARC
  5
2CB
330
1F
100
AcDbEntity
  8
0
  6
Continuous
 62
     7
370
    25
100
AcDbCircle
 10
506.1674649907
 20
702.6161580731
 30
0.0
 40
0.1999999999999886
100
AcDbArc
 50
270.0
 51
0.0
  0
LINE
  5
2CC
330
1F
100
AcDbEntity
  8
0
  6
Continuous
 62
     7
370
    25
100
AcDbLine
 10
506.1674652763
 20
702.616152031
 30
0.0
 11
506.1674652763
 21
702.4161635466
 31
0.0
  0
LINE
  5
2CD
330
1F
100
AcDbEntity
  8
0
  6
Continuous
 62
     7
370
    25
100
AcDbLine
 10
508.6785791584
 20
707.9939364024
 30
0.0
 11
507.0119140812
 21
707.9939364024
 31
0.0
  0
LINE
  5
2CE
330
1F
100
AcDbEntity
  8
0
  6
Continuous
 62
     7
370
    25
100
AcDbLine
 10
520.7230238386
 20
707.7494977542
 30
0.0
 11
520.7230238386
 21
707.7939330168
 31
0.0
  0
LINE
  5
2CF
330
1F
100
AcDbEntity
  8
0
  6
Continuous
 62
     7
370
    25
100
AcDbLine
 10
532.034137673
 20
710.4161648579
 30
0.0
 11
538.7896834083
 21
710.4161648579
 31
0.0
  0
LINE
  5
2D0
330
1F
100
AcDbEntity
  8
0
  6
Continuous
 62
     7
370
    25
100
AcDbLine
 10
506.1674652763
 20
702.4161635466
 30
0.0
 11
499.4563548036
 21
702.4161635466
 31
0.0
  0
ARC
  5
2D1
330
1F
100
AcDbEntity
  8
0
  6
Continuous
 62
     7
370
    25
100
AcDbCircle
 10
534.4341317107
 20
705.0828247131
 30
0.0
 40
0.2000000000000455
100
AcDbArc
 50
90.0
 51
180.0
  0
LINE
  5
2D2
330
1F
100
AcDbEntity
  8
0
  6
Continuous
 62
     7
370
    25
100
AcDbLine
 10
514.5230231948
 20
708.1939397879
 30
0.0
 11
514.7230265804
 21
708.1939397879
 31
0.0
  0
ARC
  5
2D3
330
1F
100
AcDbEntity
  8
0
  6
Continuous
 62
     7
370
    25
100
AcDbCircle
 10
514.5230205107
 20
708.1939358331
 30
0.0
 40
0.1999999999999318
100
AcDbArc
 50
270.0
 51
0.0
  0
LINE
  5
2D4
330
1F
100
AcDbEntity
  8
0
  6
Continuous
 62
     7
370
    25
100
AcDbLine
 10
527.1452454992
 20
710.2161614724
 30
0.0
 11
527.3452488847
 21
710.2161614724
 31
0.0
  0
LINE
  5
2D5
330
1F
100
AcDbEntity
  8
0
  6
Continuous
 62
     7
370
    25
100
AcDbLine
 10
527.3452488847
 20
710.2161614724
 30
0.0
 11
527.3452488847
 21
705.0383804865
 31
0.0
  0
LINE
  5
2D6
330
1F
100
AcDbEntity
  8
0
  6
Continuous
 62
     7
370
    25
100
AcDbLine
 10
531.1896888681
 20
702.4161635466
 30
0.0
 11
523.7674651809
 21
702.4161635466
 31
0.0
  0
LINE
  5
2D7
330
1F
100
AcDbEntity
  8
0
  6
Continuous
 62
     7
370
    25
100
AcDbLine
 10
523.7674651809
 20
702.4161635466
 30
0.0
 11
523.7674651809
 21
702.616152031
 31
0.0
  0
ARC
  5
2D8
330
1F
100
AcDbEntity
  8
0
  6
Continuous
 62
     7
370
    25
100
AcDbCircle
 10
538.7896872407
 20
703.4161580731
 30
0.0
 40
1.000000000000114
100
AcDbArc
 50
270.0
 51
0.0
  0
LINE
  5
2D9
330
1F
100
AcDbEntity
  8
0
  6
Continuous
 62
     7
370
    25
100
AcDbLine
 10
539.7896854349
 20
703.416150672
 30
0.0
 11
539.5896820493
 21
703.416150672
 31
0.0
  0
ARC
  5
2DA
330
1F
100
AcDbEntity
  8
0
  6
Continuous
 62
     7
370
    25
100
AcDbCircle
 10
520.5230205107
 20
705.0383803131
 30
0.0
 40
0.1999999999999318
100
AcDbArc
 50
270.0
 51
0.0
  0
LINE
  5
2DB
330
1F
100
AcDbEntity
  8
0
  6
Continuous
 62
     7
370
    25
100
AcDbLine
 10
520.523020453
 20
704.838377101
 30
0.0
 11
520.523020453
 21
704.6383737155
 31
0.0
  0
LINE
  5
2DC
330
1F
100
AcDbEntity
  8
0
  6
Continuous
 62
     7
370
    25
100
AcDbLine
 10
522.9230163761
 20
702.4161635466
 30
0.0
 11
515.3674719997
 21
702.4161635466
 31
0.0
  0
ARC
  5
2DD
330
1F
100
AcDbEntity
  8
0
  6
Continuous
 62
     7
370
    25
100
AcDbCircle
 10
534.4341317107
 20
705.0383803131
 30
0.0
 40
0.1999999999999318
100
AcDbArc
 50
180.0
 51
270.0
  0
LINE
  5
2DE
330
1F
100
AcDbEntity
  8
0
  6
Continuous
 62
     7
370
    25
100
AcDbLine
 10
534.434133596
 20
704.6383737155
 30
0.0
 11
534.434133596
 21
704.838377101
 31
0.0
  0
LINE
  5
2DF
330
1F
100
AcDbEntity
  8
0
  6
Continuous
 62
     7
370
    25
100
AcDbLine
 10
534.434133596
 20
704.838377101
 30
0.0
 11
537.1896861263
 21
704.838377101
 31
0.0
  0
ARC
  5
2E0
330
1F
100
AcDbEntity
  8
0
  6
Continuous
 62
     7
370
    25
100
AcDbCircle
 10
501.0563538707
 20
707.7939358331
 30
0.0
 40
0.2000000000000455
100
AcDbArc
 50
90.0
 51
180.0
  0
LINE
  5
2E1
330
1F
100
AcDbEntity
  8
0
  6
Continuous
 62
     7
370
    25
100
AcDbLine
 10
523.7674651809
 20
710.2161614724
 30
0.0
 11
523.7674651809
 21
710.4161648579
 31
0.0
  0
LINE
  5
2E2
330
1F
100
AcDbEntity
  8
0
  6
Continuous
 62
     7
370
    25
100
AcDbLine
 10
523.7674651809
 20
710.4161648579
 30
0.0
 11
527.1452454992
 21
710.4161648579
 31
0.0
  0
LINE
  5
2E3
330
1F
100
AcDbEntity
  8
0
  6
Continuous
 62
     7
370
    25
100
AcDbLine
 10
527.1452454992
 20
710.2161614724
 30
0.0
 11
527.1452454992
 21
710.4161648579
 31
0.0
  0
LINE
  5
2E4
330
1F
100
AcDbEntity
  8
0
  6
Continuous
 62
     7
370
    25
100
AcDbLine
 10
514.7230265804
 20
710.2161614724
 30
0.0
 11
514.7230265804
 21
708.1939397879
 31
0.0
  0
LINE
  5
2E5
330
1F
100
AcDbEntity
  8
0
  6
Continuous
 62
     7
370
    25
100
AcDbLine
 10
539.7896854349
 20
709.4161628314
 30
0.0
 11
539.7896854349
 21
703.416150672
 31
0.0
  0
ARC
  5
2E6
330
1F
100
AcDbEntity
  8
0
  6
Continuous
 62
     7
370
    25
100
AcDbCircle
 10
520.5230205107
 20
705.0828247131
 30
0.0
 40
0.2000000000000455
100
AcDbArc
 50
0.0
 51
90.0
  0
LINE
  5
2E7
330
1F
100
AcDbEntity
  8
0
  6
Continuous
 62
     7
370
    25
100
AcDbLine
 10
537.3896895118
 20
705.0383804865
 30
0.0
 11
537.3896895118
 21
705.0828306504
 31
0.0
  0
ARC
  5
2E8
330
1F
100
AcDbEntity
  8
0
  6
Continuous
 62
     7
370
    25
100
AcDbCircle
 10
527.1452425907
 20
710.2161580731
 30
0.0
 40
0.2000000000000455
100
AcDbArc
 50
0.0
 51
90.0
  0
LINE
  5
2E9
330
1F
100
AcDbEntity
  8
0
  6
Continuous
 62
     7
370
    25
100
AcDbLine
 10
503.7674693533
 20
705.2828191348
 30
0.0
 11
498.6563561626
 21
705.2828191348
 31
0.0
  0
LINE
  5
2EA
330
1F
100
AcDbEntity
  8
0
  6
Continuous
 62
     7
370
    25
100
AcDbLine
 10
498.6563561626
 20
705.2828191348
 30
0.0
 11
498.6563561626
 21
705.4828225203
 31
0.0
  0
LINE
  5
2EB
330
1F
100
AcDbEntity
  8
0
  6
Continuous
 62
     7
370
    25
100
AcDbLine
 10
517.7674679227
 20
704.838377101
 30
0.0
 11
520.523020453
 21
704.838377101
 31
0.0
  0
LINE
  5
2EC
330
1F
100
AcDbEntity
  8
0
  6
Continuous
 62
     7
370
    25
100
AcDbLine
 10
515.3674719997
 20
710.4161648579
 30
0.0
 11
522.9230163761
 21
710.4161648579
 31
0.0
  0
ARC
  5
2ED
330
1F
100
AcDbEntity
  8
0
  6
Continuous
 62
     7
370
    25
100
AcDbCircle
 10
531.1896872407
 20
704.6383803131
 30
0.0
 40
0.2000000000001592
100
AcDbArc
 50
0.0
 51
90.0
  0
ARC
  5
2EE
330
1F
100
AcDbEntity
  8
0
  6
Continuous
 62
     7
370
    25
100
AcDbCircle
 10
498.6563538707
 20
705.4828247131
 30
0.0
 40
0.2000000000001592
100
AcDbArc
 50
180.0
 51
270.0
  0
LINE
  5
2EF
330
1F
100
AcDbEntity
  8
0
  6
Continuous
 62
     7
370
    25
100
AcDbLine
 10
532.034137673
 20
702.616152031
 30
0.0
 11
531.8341342874
 21
702.616152031
 31
0.0
  0
LINE
  5
2F0
330
1F
100
AcDbEntity
  8
0
  6
Continuous
 62
     7
370
    25
100
AcDbLine
 10
531.8341342874
 20
702.616152031
 30
0.0
 11
531.8341342874
 21
707.3494909831
 31
0.0
  0
ARC
  5
2F1
330
1F
100
AcDbEntity
  8
0
  6
Continuous
 62
     7
370
    25
100
AcDbCircle
 10
523.7674649107
 20
702.6161580731
 30
0.0
 40
0.2000000000000455
100
AcDbArc
 50
180.0
 51
270.0
  0
LINE
  5
2F2
330
1F
100
AcDbEntity
  8
0
  6
Continuous
 62
     7
370
    25
100
AcDbLine
 10
515.3674719997
 20
707.5494943686
 30
0.0
 11
520.523020453
 21
707.5494943686
 31
0.0
  0
ARC
  5
2F3
330
1F
100
AcDbEntity
  8
0
  6
Continuous
 62
     7
370
    25
100
AcDbCircle
 10
532.0341316407
 20
702.6161580731
 30
0.0
 40
0.2000000000000455
100
AcDbArc
 50
180.0
 51
270.0
  0
ARC
  5
2F4
330
1F
100
AcDbEntity
  8
0
  6
Continuous
 62
     7
370
    25
100
AcDbCircle
 10
523.7674649107
 20
710.2161580731
 30
0.0
 40
0.2000000000000455
100
AcDbArc
 50
90.0
 51
180.0
  0
ELLIPSE
  5
2F5
330
1F
100
AcDbEntity
  8
0
  6
Continuous
 62
     7
370
    25
100
AcDbEllipse
 10
977.898241488
 20
628.0691526894
 30
0.0
 11
16.43167672515494
 21
16.43167672515506
 31
0.0
210
0.0
220
0.0
230
1.0
 40
0.7745966692
 41
6.209812814810346
 42
6.942243343005992
  0
ELLIPSE
  5
2F6
330
1F
100
AcDbEntity
  8
0
  6
Continuous
 62
     7
370
    25
100
AcDbEllipse
 10
977.898241488
 20
628.0691526894
 30
0.0
 11
14.78850905263948
 21
14.7885090526396
 31
0.0
210
0.0
220
0.0
230
1.0
 40
0.7172191382
 41
5.624127271353198
 42
6.942243343005989
  0
LINE
  5
2F7
330
1F
100
AcDbEntity
  8
0
  6
Continuous
 62
     7
370
    25
100
AcDbLine
 10
983.0944029756
 20
648.8537608214
 30
0.0
 11
983.0944029756
 21
646.2556837626
 31
0.0
  0
LINE
  5
2F8
330
1F
100
AcDbEntity
  8
0
  6
Continuous
 62
     7
370
    25
100
AcDbLine
 10
517.7674679227
 20
704.838377101
 30
0.0
 11
517.7674679227
 21
705.0383804865
 31
0.0
  0
LINE
  5
2F9
330
1F
100
AcDbEntity
  8
0
  6
Continuous
 62
     7
370
    25
100
AcDbLine
 10
517.7674679227
 20
705.0383804865
 30
0.0
 11
520.523020453
 21
705.0383804865
 31
0.0
  0
LINE
  5
2FA
330
1F
100
AcDbEntity
  8
0
  6
Continuous
 62
     7
370
    25
100
AcDbLine
 10
520.523020453
 20
705.0383804865
 30
0.0
 11
520.523020453
 21
704.838377101
 31
0.0
  0
ARC
  5
2FB
330
1F
100
AcDbEntity
  8
0
  6
Continuous
 62
     7
370
    25
100
AcDbCircle
 10
538.7896872407
 20
709.4161580731
 30
0.0
 40
1.199999999999932
100
AcDbArc
 50
0.0
 51
90.0
  0
LINE
  5
2FC
330
1F
100
AcDbEntity
  8
0
  6
Continuous
 62
     7
370
    25
100
AcDbLine
 10
539.9896888204
 20
709.4161628314
 30
0.0
 11
539.7896854349
 21
709.4161628314
 31
0.0
  0
LINE
  5
2FD
330
1F
100
AcDbEntity
  8
0
  6
Continuous
 62
     7
370
    25
100
AcDbLine
 10
538.7896834083
 20
710.6161533423
 30
0.0
 11
538.7896834083
 21
710.4161648579
 31
0.0
  0
LINE
  5
2FE
330
1F
100
AcDbEntity
  8
0
  6
Continuous
 62
     7
370
    25
100
AcDbLine
 10
527.3452488847
 20
705.0383804865
 30
0.0
 11
527.5452373691
 21
705.0383804865
 31
0.0
  0
LINE
  5
2FF
330
1F
100
AcDbEntity
  8
0
  6
Continuous
 62
     7
370
    25
100
AcDbLine
 10
527.5452373691
 20
704.838377101
 30
0.0
 11
527.5452373691
 21
705.0383804865
 31
0.0
  0
LINE
  5
300
330
1F
100
AcDbEntity
  8
0
  6
Continuous
 62
     7
370
    25
100
AcDbLine
 10
531.8341342874
 20
702.616152031
 30
0.0
 11
531.6341309019
 21
702.616152031
 31
0.0
  0
LINE
  5
301
330
1F
100
AcDbEntity
  8
0
  6
Continuous
 62
     7
370
    25
100
AcDbLine
 10
531.6341309019
 20
702.616152031
 30
0.0
 11
531.6341309019
 21
707.3494909831
 31
0.0
  0
LINE
  5
302
330
1F
100
AcDbEntity
  8
0
  6
Continuous
 62
     7
370
    25
100
AcDbLine
 10
531.8341342874
 20
707.3494909831
 30
0.0
 11
531.6341309019
 21
707.3494909831
 31
0.0
  0
LINE
  5
303
330
1F
100
AcDbEntity
  8
0
  6
Continuous
 62
     7
370
    25
100
AcDbLine
 10
537.1896861263
 20
705.0828306504
 30
0.0
 11
534.434133596
 21
705.0828306504
 31
0.0
  0
LINE
  5
304
330
1F
100
AcDbEntity
  8
0
  6
Continuous
 62
     7
370
    25
100
AcDbLine
 10
534.434133596
 20
705.0828306504
 30
0.0
 11
534.434133596
 21
705.2828191348
 31
0.0
  0
LINE
  5
305
330
1F
100
AcDbEntity
  8
0
  6
Continuous
 62
     7
370
    25
100
AcDbLine
 10
537.1896861263
 20
705.0828306504
 30
0.0
 11
537.1896861263
 21
705.2828191348
 31
0.0
  0
LINE
  5
306
330
1F
100
AcDbEntity
  8
0
  6
Continuous
 62
     7
370
    25
100
AcDbLine
 10
534.2341302105
 20
705.0828306504
 30
0.0
 11
534.434133596
 21
705.0828306504
 31
0.0
  0
LINE
  5
307
330
1F
100
AcDbEntity
  8
0
  6
Continuous
 62
     7
370
    25
100
AcDbLine
 10
534.434133596
 20
705.0828306504
 30
0.0
 11
534.434133596
 21
705.0383804865
 31
0.0
  0
LINE
  5
308
330
1F
100
AcDbEntity
  8
0
  6
Continuous
 62
     7
370
    25
100
AcDbLine
 10
534.434133596
 20
705.0383804865
 30
0.0
 11
534.2341302105
 21
705.0383804865
 31
0.0
  0
LINE
  5
309
330
1F
100
AcDbEntity
  8
0
  6
Continuous
 62
     7
370
    25
100
AcDbLine
 10
537.1896861263
 20
707.5494943686
 30
0.0
 11
537.1896861263
 21
707.7494977542
 31
0.0
  0
LINE
  5
30A
330
1F
100
AcDbEntity
  8
0
  6
Continuous
 62
     7
370
    25
100
AcDbLine
 10
537.3896895118
 20
707.7494977542
 30
0.0
 11
537.1896861263
 21
707.7494977542
 31
0.0
  0
LINE
  5
30B
330
1F
100
AcDbEntity
  8
0
  6
Continuous
 62
     7
370
    25
100
AcDbLine
 10
508.6785791584
 20
702.616152031
 30
0.0
 11
508.6785791584
 21
707.7939330168
 31
0.0
  0
LINE
  5
30C
330
1F
100
AcDbEntity
  8
0
  6
Continuous
 62
     7
370
    25
100
AcDbLine
 10
508.6785791584
 20
707.7939330168
 30
0.0
 11
508.8785825439
 21
707.7939330168
 31
0.0
  0
LINE
  5
30D
330
1F
100
AcDbEntity
  8
0
  6
Continuous
 62
     7
370
    25
100
AcDbLine
 10
508.6785791584
 20
702.616152031
 30
0.0
 11
508.8785825439
 21
702.616152031
 31
0.0
  0
LINE
  5
30E
330
1F
100
AcDbEntity
  8
0
  6
Continuous
 62
     7
370
    25
100
AcDbLine
 10
532.034137673
 20
707.5494943686
 30
0.0
 11
532.034137673
 21
707.7494977542
 31
0.0
  0
LINE
  5
30F
330
1F
100
AcDbEntity
  8
0
  6
Continuous
 62
     7
370
    25
100
AcDbLine
 10
532.034137673
 20
707.7494977542
 30
0.0
 11
537.1896861263
 21
707.7494977542
 31
0.0
  0
LINE
  5
310
330
1F
100
AcDbEntity
  8
0
  6
Continuous
 62
     7
370
    25
100
AcDbLine
 10
520.523020453
 20
705.2828191348
 30
0.0
 11
520.523020453
 21
705.0828306504
 31
0.0
  0
LINE
  5
311
330
1F
100
AcDbEntity
  8
0
  6
Continuous
 62
     7
370
    25
100
AcDbLine
 10
520.523020453
 20
705.0828306504
 30
0.0
 11
517.7674679227
 21
705.0828306504
 31
0.0
  0
LINE
  5
312
330
1F
100
AcDbEntity
  8
0
  6
Continuous
 62
     7
370
    25
100
AcDbLine
 10
517.7674679227
 20
705.0828306504
 30
0.0
 11
517.7674679227
 21
705.2828191348
 31
0.0
  0
LINE
  5
313
330
1F
100
AcDbEntity
  8
0
  6
Continuous
 62
     7
370
    25
100
AcDbLine
 10
527.5452373691
 20
705.0383804865
 30
0.0
 11
531.1896888681
 21
705.0383804865
 31
0.0
  0
LINE
  5
314
330
1F
100
AcDbEntity
  8
0
  6
Continuous
 62
     7
370
    25
100
AcDbLine
 10
531.1896888681
 20
705.0383804865
 30
0.0
 11
531.1896888681
 21
704.838377101
 31
0.0
  0
LINE
  5
315
330
1F
100
AcDbEntity
  8
0
  6
Continuous
 62
     7
370
    25
100
AcDbLine
 10
520.523020453
 20
707.9939364024
 30
0.0
 11
520.523020453
 21
707.7939330168
 31
0.0
  0
LINE
  5
316
330
1F
100
AcDbEntity
  8
0
  6
Continuous
 62
     7
370
    25
100
AcDbLine
 10
520.523020453
 20
707.7939330168
 30
0.0
 11
515.3674719997
 21
707.7939330168
 31
0.0
  0
LINE
  5
317
330
1F
100
AcDbEntity
  8
0
  6
Continuous
 62
     7
370
    25
100
AcDbLine
 10
515.3674719997
 20
707.9939364024
 30
0.0
 11
515.3674719997
 21
707.7939330168
 31
0.0
  0
LINE
  5
318
330
1F
100
AcDbEntity
  8
0
  6
Continuous
 62
     7
370
    25
100
AcDbLine
 10
538.7896834083
 20
702.2161601611
 30
0.0
 11
532.034137673
 21
702.2161601611
 31
0.0
  0
LINE
  5
319
330
1F
100
AcDbEntity
  8
0
  6
Continuous
 62
     7
370
    25
100
AcDbLine
 10
532.034137673
 20
702.2161601611
 30
0.0
 11
532.034137673
 21
702.4161635466
 31
0.0
  0
LINE
  5
31A
330
1F
100
AcDbEntity
  8
0
  6
Continuous
 62
     7
370
    25
100
AcDbLine
 10
538.7896834083
 20
702.2161601611
 30
0.0
 11
538.7896834083
 21
702.4161635466
 31
0.0
  0
LINE
  5
31B
330
1F
100
AcDbEntity
  8
0
  6
Continuous
 62
     7
370
    25
100
AcDbLine
 10
520.523020453
 20
707.7494977542
 30
0.0
 11
520.523020453
 21
707.5494943686
 31
0.0
  0
LINE
  5
31C
330
1F
100
AcDbEntity
  8
0
  6
Continuous
 62
     7
370
    25
100
AcDbLine
 10
520.7230238386
 20
707.7494977542
 30
0.0
 11
520.523020453
 21
707.7494977542
 31
0.0
  0
LINE
  5
31D
330
1F
100
AcDbEntity
  8
0
  6
Continuous
 62
     7
370
    25
100
AcDbLine
 10
503.9674578376
 20
705.0383804865
 30
0.0
 11
503.7674693533
 21
705.0383804865
 31
0.0
  0
LINE
  5
31E
330
1F
100
AcDbEntity
  8
0
  6
Continuous
 62
     7
370
    25
100
AcDbLine
 10
503.7674693533
 20
705.0383804865
 30
0.0
 11
503.7674693533
 21
705.0828306504
 31
0.0
  0
LINE
  5
31F
330
1F
100
AcDbEntity
  8
0
  6
Continuous
 62
     7
370
    25
100
AcDbLine
 10
503.9674578376
 20
705.0828306504
 30
0.0
 11
503.7674693533
 21
705.0828306504
 31
0.0
  0
LINE
  5
320
330
1F
100
AcDbEntity
  8
0
  6
Continuous
 62
     7
370
    25
100
AcDbLine
 10
534.434133596
 20
704.838377101
 30
0.0
 11
534.434133596
 21
705.0383804865
 31
0.0
  0
LINE
  5
321
330
1F
100
AcDbEntity
  8
0
  6
Continuous
 62
     7
370
    25
100
AcDbLine
 10
534.434133596
 20
705.0383804865
 30
0.0
 11
537.1896861263
 21
705.0383804865
 31
0.0
  0
LINE
  5
322
330
1F
100
AcDbEntity
  8
0
  6
Continuous
 62
     7
370
    25
100
AcDbLine
 10
537.1896861263
 20
704.838377101
 30
0.0
 11
537.1896861263
 21
705.0383804865
 31
0.0
  0
LINE
  5
323
330
1F
100
AcDbEntity
  8
0
  6
Continuous
 62
     7
370
    25
100
AcDbLine
 10
515.3674719997
 20
707.5494943686
 30
0.0
 11
515.3674719997
 21
707.7494977542
 31
0.0
  0
LINE
  5
324
330
1F
100
AcDbEntity
  8
0
  6
Continuous
 62
     7
370
    25
100
AcDbLine
 10
514.9674652286
 20
707.3494909831
 30
0.0
 11
515.1674686142
 21
707.3494909831
 31
0.0
  0
ARC
  5
325
330
1F
100
AcDbEntity
  8
0
  6
Continuous
 62
     7
370
    25
100
AcDbCircle
 10
515.3674649107
 20
707.3494914331
 30
0.0
 40
0.4000000000000909
100
AcDbArc
 50
90.0
 51
180.0
  0
LINE
  5
326
330
1F
100
AcDbEntity
  8
0
  6
Continuous
 62
     7
370
    25
100
AcDbLine
 10
499.4563548036
 20
702.4161635466
 30
0.0
 11
499.4563548036
 21
702.2161601611
 31
0.0
  0
ARC
  5
327
330
1F
100
AcDbEntity
  8
0
  6
Continuous
 62
     7
370
    25
100
AcDbCircle
 10
499.4563538707
 20
703.4161580731
 30
0.0
 40
1.200000000000045
100
AcDbArc
 50
180.0
 51
270.0
  0
LINE
  5
328
330
1F
100
AcDbEntity
  8
0
  6
Continuous
 62
     7
370
    25
100
AcDbLine
 10
498.4563527771
 20
703.416150672
 30
0.0
 11
498.2563493915
 21
703.416150672
 31
0.0
  0
LINE
  5
329
330
1F
100
AcDbEntity
  8
0
  6
Continuous
 62
     7
370
    25
100
AcDbLine
 10
498.2563493915
 20
703.416150672
 30
0.0
 11
498.2563493915
 21
704.6383737155
 31
0.0
  0
LINE
  5
32A
330
1F
100
AcDbEntity
  8
0
  6
Continuous
 62
     7
370
    25
100
AcDbLine
 10
498.4563527771
 20
704.6383737155
 30
0.0
 11
498.2563493915
 21
704.6383737155
 31
0.0
  0
LINE
  5
32B
330
1F
100
AcDbEntity
  8
0
  6
Continuous
 62
     7
370
    25
100
AcDbLine
 10
531.589680738
 20
704.6383737155
 30
0.0
 11
531.589680738
 21
702.616152031
 31
0.0
  0
LINE
  5
32C
330
1F
100
AcDbEntity
  8
0
  6
Continuous
 62
     7
370
    25
100
AcDbLine
 10
531.589680738
 20
702.616152031
 30
0.0
 11
531.3896922536
 21
702.616152031
 31
0.0
  0
LINE
  5
32D
330
1F
100
AcDbEntity
  8
0
  6
Continuous
 62
     7
370
    25
100
AcDbLine
 10
531.589680738
 20
704.6383737155
 30
0.0
 11
531.3896922536
 21
704.6383737155
 31
0.0
  0
LINE
  5
32E
330
1F
100
AcDbEntity
  8
0
  6
Continuous
 62
     7
370
    25
100
AcDbLine
 10
508.6785791584
 20
707.7939330168
 30
0.0
 11
508.6785791584
 21
707.9939364024
 31
0.0
  0
LINE
  5
32F
330
1F
100
AcDbEntity
  8
0
  6
Continuous
 62
     7
370
    25
100
AcDbLine
 10
515.3674719997
 20
707.7494977542
 30
0.0
 11
520.523020453
 21
707.7494977542
 31
0.0
  0
LINE
  5
330
330
1F
100
AcDbEntity
  8
0
  6
Continuous
 62
     7
370
    25
100
AcDbLine
 10
512.6563547321
 20
707.7939330168
 30
0.0
 11
512.8563581176
 21
707.7939330168
 31
0.0
  0
LINE
  5
331
330
1F
100
AcDbEntity
  8
0
  6
Continuous
 62
     7
370
    25
100
AcDbLine
 10
512.8563581176
 20
707.7939330168
 30
0.0
 11
512.8563581176
 21
702.616152031
 31
0.0
  0
LINE
  5
332
330
1F
100
AcDbEntity
  8
0
  6
Continuous
 62
     7
370
    25
100
AcDbLine
 10
512.6563547321
 20
702.616152031
 30
0.0
 11
512.8563581176
 21
702.616152031
 31
0.0
  0
LINE
  5
333
330
1F
100
AcDbEntity
  8
0
  6
Continuous
 62
     7
370
    25
100
AcDbLine
 10
531.6341309019
 20
708.1939397879
 30
0.0
 11
531.6341309019
 21
710.2161614724
 31
0.0
  0
LINE
  5
334
330
1F
100
AcDbEntity
  8
0
  6
Continuous
 62
     7
370
    25
100
AcDbLine
 10
531.6341309019
 20
710.2161614724
 30
0.0
 11
531.8341342874
 21
710.2161614724
 31
0.0
  0
LINE
  5
335
330
1F
100
AcDbEntity
  8
0
  6
Continuous
 62
     7
370
    25
100
AcDbLine
 10
531.6341309019
 20
708.1939397879
 30
0.0
 11
531.8341342874
 21
708.1939397879
 31
0.0
  0
LINE
  5
336
330
1F
100
AcDbEntity
  8
0
  6
Continuous
 62
     7
370
    25
100
AcDbLine
 10
531.1896888681
 20
702.2161601611
 30
0.0
 11
523.7674651809
 21
702.2161601611
 31
0.0
  0
LINE
  5
337
330
1F
100
AcDbEntity
  8
0
  6
Continuous
 62
     7
370
    25
100
AcDbLine
 10
523.7674651809
 20
702.2161601611
 30
0.0
 11
523.7674651809
 21
702.4161635466
 31
0.0
  0
LINE
  5
338
330
1F
100
AcDbEntity
  8
0
  6
Continuous
 62
     7
370
    25
100
AcDbLine
 10
531.1896888681
 20
702.2161601611
 30
0.0
 11
531.1896888681
 21
702.4161635466
 31
0.0
  0
LINE
  5
339
330
1F
100
AcDbEntity
  8
0
  6
Continuous
 62
     7
370
    25
100
AcDbLine
 10
520.523020453
 20
705.0383804865
 30
0.0
 11
520.7230238386
 21
705.0383804865
 31
0.0
  0
LINE
  5
33A
330
1F
100
AcDbEntity
  8
0
  6
Continuous
 62
     7
370
    25
100
AcDbLine
 10
539.9896888204
 20
709.4161628314
 30
0.0
 11
539.9896888204
 21
703.416150672
 31
0.0
  0
LINE
  5
33B
330
1F
100
AcDbEntity
  8
0
  6
Continuous
 62
     7
370
    25
100
AcDbLine
 10
539.9896888204
 20
703.416150672
 30
0.0
 11
539.7896854349
 21
703.416150672
 31
0.0
  0
LINE
  5
33C
330
1F
100
AcDbEntity
  8
0
  6
Continuous
 62
     7
370
    25
100
AcDbLine
 10
532.034137673
 20
710.6161533423
 30
0.0
 11
538.7896834083
 21
710.6161533423
 31
0.0
  0
LINE
  5
33D
330
1F
100
AcDbEntity
  8
0
  6
Continuous
 62
     7
370
    25
100
AcDbLine
 10
532.034137673
 20
710.4161648579
 30
0.0
 11
532.034137673
 21
710.6161533423
 31
0.0
  0
LINE
  5
33E
330
1F
100
AcDbEntity
  8
0
  6
Continuous
 62
     7
370
    25
100
AcDbLine
 10
506.5674720474
 20
710.2161614724
 30
0.0
 11
506.3674686618
 21
710.2161614724
 31
0.0
  0
LINE
  5
33F
330
1F
100
AcDbEntity
  8
0
  6
Continuous
 62
     7
370
    25
100
AcDbLine
 10
506.1674652763
 20
710.6161533423
 30
0.0
 11
506.1674652763
 21
710.4161648579
 31
0.0
  0
ARC
  5
340
330
1F
100
AcDbEntity
  8
0
  6
Continuous
 62
     7
370
    25
100
AcDbCircle
 10
506.1674649907
 20
710.2161580731
 30
0.0
 40
0.4000000000000909
100
AcDbArc
 50
0.0
 51
90.0
  0
ARC
  5
341
330
1F
100
AcDbEntity
  8
0
  6
Continuous
 62
     7
370
    25
100
AcDbCircle
 10
532.0341316407
 20
710.2161580731
 30
0.0
 40
0.4000000000000909
100
AcDbArc
 50
90.0
 51
180.0
  0
LINE
  5
342
330
1F
100
AcDbEntity
  8
0
  6
Continuous
 62
     7
370
    25
100
AcDbLine
 10
514.5230231948
 20
707.9939364024
 30
0.0
 11
514.5230231948
 21
707.7939330168
 31
0.0
  0
LINE
  5
343
330
1F
100
AcDbEntity
  8
0
  6
Continuous
 62
     7
370
    25
100
AcDbLine
 10
514.5230231948
 20
707.7939330168
 30
0.0
 11
512.8563581176
 21
707.7939330168
 31
0.0
  0
LINE
  5
344
330
1F
100
AcDbEntity
  8
0
  6
Continuous
 62
     7
370
    25
100
AcDbLine
 10
512.8563581176
 20
707.9939364024
 30
0.0
 11
512.8563581176
 21
707.7939330168
 31
0.0
  0
LINE
  5
345
330
1F
100
AcDbEntity
  8
0
  6
Continuous
 62
     7
370
    25
100
AcDbLine
 10
501.0563520856
 20
707.5494943686
 30
0.0
 11
501.0563520856
 21
707.7494977542
 31
0.0
  0
LINE
  5
346
330
1F
100
AcDbEntity
  8
0
  6
Continuous
 62
     7
370
    25
100
AcDbLine
 10
501.0563520856
 20
707.7494977542
 30
0.0
 11
506.1674652763
 21
707.7494977542
 31
0.0
  0
LINE
  5
347
330
1F
100
AcDbEntity
  8
0
  6
Continuous
 62
     7
370
    25
100
AcDbLine
 10
506.1674652763
 20
707.7494977542
 30
0.0
 11
506.1674652763
 21
707.5494943686
 31
0.0
  0
LINE
  5
348
330
1F
100
AcDbEntity
  8
0
  6
Continuous
 62
     7
370
    25
100
AcDbLine
 10
517.5674645372
 20
705.0828306504
 30
0.0
 11
517.7674679227
 21
705.0828306504
 31
0.0
  0
LINE
  5
349
330
1F
100
AcDbEntity
  8
0
  6
Continuous
 62
     7
370
    25
100
AcDbLine
 10
517.7674679227
 20
705.0828306504
 30
0.0
 11
517.7674679227
 21
705.0383804865
 31
0.0
  0
LINE
  5
34A
330
1F
100
AcDbEntity
  8
0
  6
Continuous
 62
     7
370
    25
100
AcDbLine
 10
517.5674645372
 20
705.0383804865
 30
0.0
 11
517.7674679227
 21
705.0383804865
 31
0.0
  0
LINE
  5
34B
330
1F
100
AcDbEntity
  8
0
  6
Continuous
 62
     7
370
    25
100
AcDbLine
 10
523.5674617954
 20
702.616152031
 30
0.0
 11
523.3674584098
 21
702.616152031
 31
0.0
  0
LINE
  5
34C
330
1F
100
AcDbEntity
  8
0
  6
Continuous
 62
     7
370
    25
100
AcDbLine
 10
523.3674584098
 20
702.616152031
 30
0.0
 11
523.3674584098
 21
710.2161614724
 31
0.0
  0
LINE
  5
34D
330
1F
100
AcDbEntity
  8
0
  6
Continuous
 62
     7
370
    25
100
AcDbLine
 10
523.3674584098
 20
710.2161614724
 30
0.0
 11
523.5674617954
 21
710.2161614724
 31
0.0
  0
LINE
  5
34E
330
1F
100
AcDbEntity
  8
0
  6
Continuous
 62
     7
370
    25
100
AcDbLine
 10
520.7230238386
 20
707.7939330168
 30
0.0
 11
520.523020453
 21
707.7939330168
 31
0.0
  0
LINE
  5
34F
330
1F
100
AcDbEntity
  8
0
  6
Continuous
 62
     7
370
    25
100
AcDbLine
 10
506.5674720474
 20
710.2161614724
 30
0.0
 11
506.5674720474
 21
708.1939397879
 31
0.0
  0
LINE
  5
350
330
1F
100
AcDbEntity
  8
0
  6
Continuous
 62
     7
370
    25
100
AcDbLine
 10
506.5674720474
 20
708.1939397879
 30
0.0
 11
506.3674686618
 21
708.1939397879
 31
0.0
  0
ARC
  5
351
330
1F
100
AcDbEntity
  8
0
  6
Continuous
 62
     7
370
    25
100
AcDbCircle
 10
523.7674649107
 20
702.6161580731
 30
0.0
 40
0.4000000000000909
100
AcDbArc
 50
180.0
 51
270.0
  0
ARC
  5
352
330
1F
100
AcDbEntity
  8
0
  6
Continuous
 62
     7
370
    25
100
AcDbCircle
 10
498.6563538707
 20
704.6383803131
 30
0.0
 40
0.4000000000000909
100
AcDbArc
 50
90.0
 51
180.0
  0
LINE
  5
353
330
1F
100
AcDbEntity
  8
0
  6
Continuous
 62
     7
370
    25
100
AcDbLine
 10
498.6563561626
 20
704.838377101
 30
0.0
 11
498.6563561626
 21
705.0383804865
 31
0.0
  0
LINE
  5
354
330
1F
100
AcDbEntity
  8
0
  6
Continuous
 62
     7
370
    25
100
AcDbLine
 10
514.9674652286
 20
702.616152031
 30
0.0
 11
514.9674652286
 21
707.3494909831
 31
0.0
  0
LINE
  5
355
330
1F
100
AcDbEntity
  8
0
  6
Continuous
 62
     7
370
    25
100
AcDbLine
 10
514.9674652286
 20
702.616152031
 30
0.0
 11
515.1674686142
 21
702.616152031
 31
0.0
  0
LINE
  5
356
330
1F
100
AcDbEntity
  8
0
  6
Continuous
 62
     7
370
    25
100
AcDbLine
 10
503.7674693533
 20
705.2828191348
 30
0.0
 11
503.7674693533
 21
705.0828306504
 31
0.0
  0
LINE
  5
357
330
1F
100
AcDbEntity
  8
0
  6
Continuous
 62
     7
370
    25
100
AcDbLine
 10
498.2563493915
 20
705.4828225203
 30
0.0
 11
498.4563527771
 21
705.4828225203
 31
0.0
  0
LINE
  5
358
330
1F
100
AcDbEntity
  8
0
  6
Continuous
 62
     7
370
    25
100
AcDbLine
 10
498.6563561626
 20
705.0828306504
 30
0.0
 11
498.6563561626
 21
705.2828191348
 31
0.0
  0
ARC
  5
359
330
1F
100
AcDbEntity
  8
0
  6
Continuous
 62
     7
370
    25
100
AcDbCircle
 10
498.6563538707
 20
705.4828247131
 30
0.0
 40
0.4000000000000909
100
AcDbArc
 50
180.0
 51
270.0
  0
LINE
  5
35A
330
1F
100
AcDbEntity
  8
0
  6
Continuous
 62
     7
370
    25
100
AcDbLine
 10
506.6119073101
 20
708.1939397879
 30
0.0
 11
506.8119106956
 21
708.1939397879
 31
0.0
  0
LINE
  5
35B
330
1F
100
AcDbEntity
  8
0
  6
Continuous
 62
     7
370
    25
100
AcDbLine
 10
507.0119140812
 20
707.7939330168
 30
0.0
 11
507.0119140812
 21
707.9939364024
 31
0.0
  0
ARC
  5
35C
330
1F
100
AcDbEntity
  8
0
  6
Continuous
 62
     7
370
    25
100
AcDbCircle
 10
507.0119093907
 20
708.1939358331
 30
0.0
 40
0.4000000000000909
100
AcDbArc
 50
180.0
 51
270.0
  0
ARC
  5
35D
330
1F
100
AcDbEntity
  8
0
  6
Continuous
 62
     7
370
    25
100
AcDbCircle
 10
531.1896872407
 20
704.6383803131
 30
0.0
 40
0.4000000000000909
100
AcDbArc
 50
0.0
 51
90.0
  0
LINE
  5
35E
330
1F
100
AcDbEntity
  8
0
  6
Continuous
 62
     7
370
    25
100
AcDbLine
 10
515.3674719997
 20
710.4161648579
 30
0.0
 11
515.3674719997
 21
710.6161533423
 31
0.0
  0
LINE
  5
35F
330
1F
100
AcDbEntity
  8
0
  6
Continuous
 62
     7
370
    25
100
AcDbLine
 10
515.3674719997
 20
710.6161533423
 30
0.0
 11
522.9230163761
 21
710.6161533423
 31
0.0
  0
LINE
  5
360
330
1F
100
AcDbEntity
  8
0
  6
Continuous
 62
     7
370
    25
100
AcDbLine
 10
522.9230163761
 20
710.6161533423
 30
0.0
 11
522.9230163761
 21
710.4161648579
 31
0.0
  0
LINE
  5
361
330
1F
100
AcDbEntity
  8
0
  6
Continuous
 62
     7
370
    25
100
AcDbLine
 10
527.3452488847
 20
710.2161614724
 30
0.0
 11
527.5452373691
 21
710.2161614724
 31
0.0
  0
LINE
  5
362
330
1F
100
AcDbEntity
  8
0
  6
Continuous
 62
     7
370
    25
100
AcDbLine
 10
527.5452373691
 20
710.2161614724
 30
0.0
 11
527.5452373691
 21
705.0383804865
 31
0.0
  0
LINE
  5
363
330
1F
100
AcDbEntity
  8
0
  6
Continuous
 62
     7
370
    25
100
AcDbLine
 10
503.7674693533
 20
704.838377101
 30
0.0
 11
503.7674693533
 21
705.0383804865
 31
0.0
  0
LINE
  5
364
330
1F
100
AcDbEntity
  8
0
  6
Continuous
 62
     7
370
    25
100
AcDbLine
 10
520.523020453
 20
705.0383804865
 30
0.0
 11
520.523020453
 21
705.0828306504
 31
0.0
  0
LINE
  5
365
330
1F
100
AcDbEntity
  8
0
  6
Continuous
 62
     7
370
    25
100
AcDbLine
 10
520.523020453
 20
705.0828306504
 30
0.0
 11
520.7230238386
 21
705.0828306504
 31
0.0
  0
ARC
  5
366
330
1F
100
AcDbEntity
  8
0
  6
Continuous
 62
     7
370
    25
100
AcDbCircle
 10
499.4563538707
 20
709.4161580731
 30
0.0
 40
1.200000000000387
100
AcDbArc
 50
90.0
 51
180.0
  0
LINE
  5
367
330
1F
100
AcDbEntity
  8
0
  6
Continuous
 62
     7
370
    25
100
AcDbLine
 10
499.4563548036
 20
710.6161533423
 30
0.0
 11
499.4563548036
 21
710.4161648579
 31
0.0
  0
LINE
  5
368
330
1F
100
AcDbEntity
  8
0
  6
Continuous
 62
     7
370
    25
100
AcDbLine
 10
498.2563493915
 20
709.4161628314
 30
0.0
 11
498.4563527771
 21
709.4161628314
 31
0.0
  0
LINE
  5
369
330
1F
100
AcDbEntity
  8
0
  6
Continuous
 62
     7
370
    25
100
AcDbLine
 10
514.7230265804
 20
710.2161614724
 30
0.0
 11
514.9230150648
 21
710.2161614724
 31
0.0
  0
LINE
  5
36A
330
1F
100
AcDbEntity
  8
0
  6
Continuous
 62
     7
370
    25
100
AcDbLine
 10
514.9230150648
 20
710.2161614724
 30
0.0
 11
514.9230150648
 21
708.1939397879
 31
0.0
  0
LINE
  5
36B
330
1F
100
AcDbEntity
  8
0
  6
Continuous
 62
     7
370
    25
100
AcDbLine
 10
514.7230265804
 20
708.1939397879
 30
0.0
 11
514.9230150648
 21
708.1939397879
 31
0.0
  0
LINE
  5
36C
330
1F
100
AcDbEntity
  8
0
  6
Continuous
 62
     7
370
    25
100
AcDbLine
 10
523.7674651809
 20
710.4161648579
 30
0.0
 11
523.7674651809
 21
710.6161533423
 31
0.0
  0
ARC
  5
36D
330
1F
100
AcDbEntity
  8
0
  6
Continuous
 62
     7
370
    25
100
AcDbCircle
 10
523.7674649107
 20
710.2161580731
 30
0.0
 40
0.4000000000000909
100
AcDbArc
 50
90.0
 51
180.0
  0
LINE
  5
36E
330
1F
100
AcDbEntity
  8
0
  6
Continuous
 62
     7
370
    25
100
AcDbLine
 10
512.4563513465
 20
702.4161635466
 30
0.0
 11
512.4563513465
 21
702.2161601611
 31
0.0
  0
LINE
  5
36F
330
1F
100
AcDbEntity
  8
0
  6
Continuous
 62
     7
370
    25
100
AcDbLine
 10
512.4563513465
 20
702.2161601611
 30
0.0
 11
509.0785710283
 21
702.2161601611
 31
0.0
  0
LINE
  5
370
330
1F
100
AcDbEntity
  8
0
  6
Continuous
 62
     7
370
    25
100
AcDbLine
 10
509.0785710283
 20
702.2161601611
 30
0.0
 11
509.0785710283
 21
702.4161635466
 31
0.0
  0
ARC
  5
371
330
1F
100
AcDbEntity
  8
0
  6
Continuous
 62
     7
370
    25
100
AcDbCircle
 10
515.3674649107
 20
708.1939358331
 30
0.0
 40
0.4000000000000909
100
AcDbArc
 50
180.0
 51
270.0
  0
LINE
  5
372
330
1F
100
AcDbEntity
  8
0
  6
Continuous
 62
     7
370
    25
100
AcDbLine
 10
515.1674686142
 20
708.1939397879
 30
0.0
 11
514.9674652286
 21
708.1939397879
 31
0.0
  0
LINE
  5
373
330
1F
100
AcDbEntity
  8
0
  6
Continuous
 62
     7
370
    25
100
AcDbLine
 10
537.3896895118
 20
705.0383804865
 30
0.0
 11
537.1896861263
 21
705.0383804865
 31
0.0
  0
LINE
  5
374
330
1F
100
AcDbEntity
  8
0
  6
Continuous
 62
     7
370
    25
100
AcDbLine
 10
537.1896861263
 20
705.0383804865
 30
0.0
 11
537.1896861263
 21
705.0828306504
 31
0.0
  0
LINE
  5
375
330
1F
100
AcDbEntity
  8
0
  6
Continuous
 62
     7
370
    25
100
AcDbLine
 10
537.1896861263
 20
705.0828306504
 30
0.0
 11
537.3896895118
 21
705.0828306504
 31
0.0
  0
ARC
  5
376
330
1F
100
AcDbEntity
  8
0
  6
Continuous
 62
     7
370
    25
100
AcDbCircle
 10
512.4563537907
 20
702.6161580731
 30
0.0
 40
0.4000000000000909
100
AcDbArc
 50
270.0
 51
0.0
  0
ARC
  5
377
330
1F
100
AcDbEntity
  8
0
  6
Continuous
 62
     7
370
    25
100
AcDbCircle
 10
509.0785761107
 20
702.6161580731
 30
0.0
 40
0.4000000000000909
100
AcDbArc
 50
180.0
 51
270.0
  0
LINE
  5
378
330
1F
100
AcDbEntity
  8
0
  6
Continuous
 62
     7
370
    25
100
AcDbLine
 10
522.9230163761
 20
702.2161601611
 30
0.0
 11
522.9230163761
 21
702.4161635466
 31
0.0
  0
LINE
  5
379
330
1F
100
AcDbEntity
  8
0
  6
Continuous
 62
     7
370
    25
100
AcDbLine
 10
523.3230231472
 20
702.616152031
 30
0.0
 11
523.1230197616
 21
702.616152031
 31
0.0
  0
ARC
  5
37A
330
1F
100
AcDbEntity
  8
0
  6
Continuous
 62
     7
370
    25
100
AcDbCircle
 10
522.9230205107
 20
702.6161580731
 30
0.0
 40
0.3999999999999773
100
AcDbArc
 50
270.0
 51
0.0
  0
LINE
  5
37B
330
1F
100
AcDbEntity
  8
0
  6
Continuous
 62
     7
370
    25
100
AcDbLine
 10
501.0563520856
 20
707.7939330168
 30
0.0
 11
501.0563520856
 21
707.7494977542
 31
0.0
  0
LINE
  5
37C
330
1F
100
AcDbEntity
  8
0
  6
Continuous
 62
     7
370
    25
100
AcDbLine
 10
501.0563520856
 20
707.7494977542
 30
0.0
 11
500.8563487001
 21
707.7494977542
 31
0.0
  0
LINE
  5
37D
330
1F
100
AcDbEntity
  8
0
  6
Continuous
 62
     7
370
    25
100
AcDbLine
 10
501.0563520856
 20
707.7939330168
 30
0.0
 11
500.8563487001
 21
707.7939330168
 31
0.0
  0
LINE
  5
37E
330
1F
100
AcDbEntity
  8
0
  6
Continuous
 62
     7
370
    25
100
AcDbLine
 10
527.1452454992
 20
710.4161648579
 30
0.0
 11
527.1452454992
 21
710.6161533423
 31
0.0
  0
ARC
  5
37F
330
1F
100
AcDbEntity
  8
0
  6
Continuous
 62
     7
370
    25
100
AcDbCircle
 10
527.1452425907
 20
710.2161580731
 30
0.0
 40
0.4000000000000909
100
AcDbArc
 50
0.0
 51
90.0
  0
LINE
  5
380
330
1F
100
AcDbEntity
  8
0
  6
Continuous
 62
     7
370
    25
100
AcDbLine
 10
501.0563520856
 20
707.7939330168
 30
0.0
 11
501.0563520856
 21
707.9939364024
 31
0.0
  0
LINE
  5
381
330
1F
100
AcDbEntity
  8
0
  6
Continuous
 62
     7
370
    25
100
AcDbLine
 10
506.3674686618
 20
707.3494909831
 30
0.0
 11
506.5674720474
 21
707.3494909831
 31
0.0
  0
LINE
  5
382
330
1F
100
AcDbEntity
  8
0
  6
Continuous
 62
     7
370
    25
100
AcDbLine
 10
506.5674720474
 20
707.3494909831
 30
0.0
 11
506.5674720474
 21
702.616152031
 31
0.0
  0
LINE
  5
383
330
1F
100
AcDbEntity
  8
0
  6
Continuous
 62
     7
370
    25
100
AcDbLine
 10
506.3674686618
 20
702.616152031
 30
0.0
 11
506.5674720474
 21
702.616152031
 31
0.0
  0
LINE
  5
384
330
1F
100
AcDbEntity
  8
0
  6
Continuous
 62
     7
370
    25
100
AcDbLine
 10
498.2563493915
 20
705.4828225203
 30
0.0
 11
498.2563493915
 21
709.4161628314
 31
0.0
  0
LINE
  5
385
330
1F
100
AcDbEntity
  8
0
  6
Continuous
 62
     7
370
    25
100
AcDbLine
 10
522.9230163761
 20
702.2161601611
 30
0.0
 11
515.3674719997
 21
702.2161601611
 31
0.0
  0
LINE
  5
386
330
1F
100
AcDbEntity
  8
0
  6
Continuous
 62
     7
370
    25
100
AcDbLine
 10
515.3674719997
 20
702.2161601611
 30
0.0
 11
515.3674719997
 21
702.4161635466
 31
0.0
  0
LINE
  5
387
330
1F
100
AcDbEntity
  8
0
  6
Continuous
 62
     7
370
    25
100
AcDbLine
 10
507.0119140812
 20
710.4161648579
 30
0.0
 11
507.0119140812
 21
710.6161533423
 31
0.0
  0
LINE
  5
388
330
1F
100
AcDbEntity
  8
0
  6
Continuous
 62
     7
370
    25
100
AcDbLine
 10
507.0119140812
 20
710.6161533423
 30
0.0
 11
514.5230231948
 21
710.6161533423
 31
0.0
  0
LINE
  5
389
330
1F
100
AcDbEntity
  8
0
  6
Continuous
 62
     7
370
    25
100
AcDbLine
 10
514.5230231948
 20
710.6161533423
 30
0.0
 11
514.5230231948
 21
710.4161648579
 31
0.0
  0
ARC
  5
38A
330
1F
100
AcDbEntity
  8
0
  6
Continuous
 62
     7
370
    25
100
AcDbCircle
 10
506.1674649907
 20
702.6161580731
 30
0.0
 40
0.4000000000000909
100
AcDbArc
 50
270.0
 51
0.0
  0
LINE
  5
38B
330
1F
100
AcDbEntity
  8
0
  6
Continuous
 62
     7
370
    25
100
AcDbLine
 10
506.1674652763
 20
702.4161635466
 30
0.0
 11
506.1674652763
 21
702.2161601611
 31
0.0
  0
LINE
  5
38C
330
1F
100
AcDbEntity
  8
0
  6
Continuous
 62
     7
370
    25
100
AcDbLine
 10
515.1674686142
 20
710.2161614724
 30
0.0
 11
514.9674652286
 21
710.2161614724
 31
0.0
  0
ARC
  5
38D
330
1F
100
AcDbEntity
  8
0
  6
Continuous
 62
     7
370
    25
100
AcDbCircle
 10
515.3674649107
 20
710.2161580731
 30
0.0
 40
0.4000000000000909
100
AcDbArc
 50
90.0
 51
180.0
  0
LINE
  5
38E
330
1F
100
AcDbEntity
  8
0
  6
Continuous
 62
     7
370
    25
100
AcDbLine
 10
499.4563548036
 20
710.6161533423
 30
0.0
 11
506.1674652763
 21
710.6161533423
 31
0.0
  0
ARC
  5
38F
330
1F
100
AcDbEntity
  8
0
  6
Continuous
 62
     7
370
    25
100
AcDbCircle
 10
538.7896872407
 20
703.4161580731
 30
0.0
 40
1.200000000000159
100
AcDbArc
 50
270.0
 51
0.0
  0
LINE
  5
390
330
1F
100
AcDbEntity
  8
0
  6
Continuous
 62
     7
370
    25
100
AcDbLine
 10
523.7674651809
 20
710.6161533423
 30
0.0
 11
527.1452454992
 21
710.6161533423
 31
0.0
  0
ARC
  5
391
330
1F
100
AcDbEntity
  8
0
  6
Continuous
 62
     7
370
    25
100
AcDbCircle
 10
532.0341316407
 20
707.3494914331
 30
0.0
 40
0.4000000000000909
100
AcDbArc
 50
90.0
 51
180.0
  0
LINE
  5
392
330
1F
100
AcDbEntity
  8
0
  6
Continuous
 62
     7
370
    25
100
AcDbLine
 10
506.1674652763
 20
707.7939330168
 30
0.0
 11
501.0563520856
 21
707.7939330168
 31
0.0
  0
LINE
  5
393
330
1F
100
AcDbEntity
  8
0
  6
Continuous
 62
     7
370
    25
100
AcDbLine
 10
506.1674652763
 20
707.7939330168
 30
0.0
 11
506.1674652763
 21
707.9939364024
 31
0.0
  0
LINE
  5
394
330
1F
100
AcDbEntity
  8
0
  6
Continuous
 62
     7
370
    25
100
AcDbLine
 10
514.9674652286
 20
708.1939397879
 30
0.0
 11
514.9674652286
 21
710.2161614724
 31
0.0
  0
ARC
  5
395
330
1F
100
AcDbEntity
  8
0
  6
Continuous
 62
     7
370
    25
100
AcDbCircle
 10
506.1674649907
 20
708.1939358331
 30
0.0
 40
0.4000000000000909
100
AcDbArc
 50
270.0
 51
0.0
  0
LINE
  5
396
330
1F
100
AcDbEntity
  8
0
  6
Continuous
 62
     7
370
    25
100
AcDbLine
 10
523.3230231472
 20
710.2161614724
 30
0.0
 11
523.3230231472
 21
702.616152031
 31
0.0
  0
LINE
  5
397
330
1F
100
AcDbEntity
  8
0
  6
Continuous
 62
     7
370
    25
100
AcDbLine
 10
523.3230231472
 20
710.2161614724
 30
0.0
 11
523.1230197616
 21
710.2161614724
 31
0.0
  0
ARC
  5
398
330
1F
100
AcDbEntity
  8
0
  6
Continuous
 62
     7
370
    25
100
AcDbCircle
 10
532.0341316407
 20
702.6161580731
 30
0.0
 40
0.4000000000000909
100
AcDbArc
 50
180.0
 51
270.0
  0
LINE
  5
399
330
1F
100
AcDbEntity
  8
0
  6
Continuous
 62
     7
370
    25
100
AcDbLine
 10
506.6119073101
 20
708.1939397879
 30
0.0
 11
506.6119073101
 21
710.2161614724
 31
0.0
  0
LINE
  5
39A
330
1F
100
AcDbEntity
  8
0
  6
Continuous
 62
     7
370
    25
100
AcDbLine
 10
506.6119073101
 20
710.2161614724
 30
0.0
 11
506.8119106956
 21
710.2161614724
 31
0.0
  0
LINE
  5
39B
330
1F
100
AcDbEntity
  8
0
  6
Continuous
 62
     7
370
    25
100
AcDbLine
 10
508.6785791584
 20
707.7939330168
 30
0.0
 11
507.0119140812
 21
707.7939330168
 31
0.0
  0
LINE
  5
39C
330
1F
100
AcDbEntity
  8
0
  6
Continuous
 62
     7
370
    25
100
AcDbLine
 10
503.7674693533
 20
705.0828306504
 30
0.0
 11
498.6563561626
 21
705.0828306504
 31
0.0
  0
ARC
  5
39D
330
1F
100
AcDbEntity
  8
0
  6
Continuous
 62
     7
370
    25
100
AcDbCircle
 10
514.5230205107
 20
710.2161580731
 30
0.0
 40
0.4000000000000909
100
AcDbArc
 50
0.0
 51
90.0
  0
ARC
  5
39E
330
1F
100
AcDbEntity
  8
0
  6
Continuous
 62
     7
370
    25
100
AcDbCircle
 10
515.3674649107
 20
702.6161580731
 30
0.0
 40
0.4000000000000909
100
AcDbArc
 50
180.0
 51
270.0
  0
LINE
  5
39F
330
1F
100
AcDbEntity
  8
0
  6
Continuous
 62
     7
370
    25
100
AcDbLine
 10
532.034137673
 20
707.7939330168
 30
0.0
 11
532.034137673
 21
707.9939364024
 31
0.0
  0
ARC
  5
3A0
330
1F
100
AcDbEntity
  8
0
  6
Continuous
 62
     7
370
    25
100
AcDbCircle
 10
532.0341316407
 20
708.1939358331
 30
0.0
 40
0.4000000000000909
100
AcDbArc
 50
180.0
 51
270.0
  0
LINE
  5
3A1
330
1F
100
AcDbEntity
  8
0
  6
Continuous
 62
     7
370
    25
100
AcDbLine
 10
537.1896861263
 20
707.7494977542
 30
0.0
 11
537.1896861263
 21
707.7939330168
 31
0.0
  0
LINE
  5
3A2
330
1F
100
AcDbEntity
  8
0
  6
Continuous
 62
     7
370
    25
100
AcDbLine
 10
537.3896895118
 20
707.7939330168
 30
0.0
 11
537.1896861263
 21
707.7939330168
 31
0.0
  0
LINE
  5
3A3
330
1F
100
AcDbEntity
  8
0
  6
Continuous
 62
     7
370
    25
100
AcDbLine
 10
537.1896861263
 20
707.9939364024
 30
0.0
 11
537.1896861263
 21
707.7939330168
 31
0.0
  0
LINE
  5
3A4
330
1F
100
AcDbEntity
  8
0
  6
Continuous
 62
     7
370
    25
100
AcDbLine
 10
537.1896861263
 20
707.7939330168
 30
0.0
 11
532.034137673
 21
707.7939330168
 31
0.0
  0
LINE
  5
3A5
330
1F
100
AcDbEntity
  8
0
  6
Continuous
 62
     7
370
    25
100
AcDbLine
 10
506.1674652763
 20
702.2161601611
 30
0.0
 11
499.4563548036
 21
702.2161601611
 31
0.0
  0
ARC
  5
3A6
330
1F
100
AcDbEntity
  8
0
  6
Continuous
 62
     7
370
    25
100
AcDbCircle
 10
514.5230205107
 20
708.1939358331
 30
0.0
 40
0.3999999999999773
100
AcDbArc
 50
270.0
 51
0.0
  0
LINE
  5
3A7
330
1F
100
AcDbEntity
  8
0
  6
Continuous
 62
     7
370
    25
100
AcDbLine
 10
498.6563561626
 20
705.0383804865
 30
0.0
 11
503.7674693533
 21
705.0383804865
 31
0.0
  0
LINE
  5
3A8
330
1F
100
AcDbEntity
  8
0
  6
Continuous
 62
     7
370
    25
100
AcDbLine
 10
520.523020453
 20
707.7494977542
 30
0.0
 11
520.523020453
 21
707.7939330168
 31
0.0
  0
ARC
  5
3A9
330
1F
100
AcDbEntity
  8
0
  6
Continuous
 62
     7
370
    25
100
AcDbCircle
 10
506.1674649907
 20
707.3494914331
 30
0.0
 40
0.4000000000000909
100
AcDbArc
 50
0.0
 51
90.0
  0
ARC
  5
3AA
330
1F
100
AcDbEntity
  8
0
  6
Continuous
 62
     7
370
    25
100
AcDbCircle
 10
531.1896872407
 20
702.6161580731
 30
0.0
 40
0.4000000000000909
100
AcDbArc
 50
270.0
 51
0.0
  0
ARC
  5
3AB
330
1F
100
AcDbEntity
  8
0
  6
Continuous
 62
     7
370
    25
100
AcDbCircle
 10
522.9230205107
 20
710.2161580731
 30
0.0
 40
0.4000000000000909
100
AcDbArc
 50
0.0
 51
90.0
  0
ARC
  5
3AC
330
1F
100
AcDbEntity
  8
0
  6
Continuous
 62
     7
370
    25
100
AcDbCircle
 10
507.0119093907
 20
710.2161580731
 30
0.0
 40
0.3999999999999773
100
AcDbArc
 50
90.0
 51
180.0
  0
LINE
  5
3AD
330
1F
100
AcDbEntity
  8
0
  6
Continuous
 62
     7
370
    25
100
AcDbLine
 10
495.5807117887
 20
648.8537608214
 30
0.0
 11
983.0944029756
 21
648.8537608214
 31
0.0
  0
CIRCLE
  5
3AE
330
1F
100
AcDbEntity
  8
0
  6
Continuous
 62
     7
370
    25
100
AcDbCircle
 10
739.3375517172
 20
684.6349602267
 30
0.0
 40
17.5
  0
LINE
  5
3AF
330
1F
100
AcDbEntity
  8
0
  6
Continuous
 62
     7
370
    25
100
AcDbLine
 10
983.0944029756
 20
646.2556837626
 30
0.0
 11
495.5807117887
 21
646.2556837626
 31
0.0
  0
ELLIPSE
  5
3B0
330
1F
100
AcDbEntity
  8
0
  6
Continuous
 62
     7
370
    25
100
AcDbEllipse
 10
500.1995116772
 20
628.6465029585
 30
0.0
 11
12.59761882261876
 21
-12.59761882261876
 31
0.0
210
0.0
220
0.0
230
1.0
 40
0.8419529013
 41
2.482534617763389
 42
3.80065068941621
  0
LINE
  5
3B1
330
1F
100
AcDbEntity
  8
0
  6
Continuous
 62
     7
370
    25
100
AcDbLine
 10
495.5807117887
 20
646.2556837626
 30
0.0
 11
496.7354027696
 21
645.1009927817
 31
0.0
  0
ELLIPSE
  5
3B2
330
1F
100
AcDbEntity
  8
0
  6
Continuous
 62
     7
370
    25
100
AcDbEllipse
 10
978.4755917572
 20
628.6465029585
 30
0.0
 11
12.59761882261898
 21
12.59761882261887
 31
0.0
210
0.0
220
0.0
230
1.0
 40
0.8419529013
 41
5.624127271353193
 42
6.942243343006004
  0
LINE
  5
3B3
330
1F
100
AcDbEntity
  8
0
  6
Continuous
 62
     7
370
    25
100
AcDbLine
 10
981.9396821924
 20
645.1009927817
 30
0.0
 11
983.0944029756
 21
646.2556837626
 31
0.0
  0
LINE
  5
3B4
330
1F
100
AcDbEntity
  8
0
  6
Continuous
 62
     7
370
    25
100
AcDbLine
 10
496.7354027696
 20
645.1009927817
 30
0.0
 11
981.9396821924
 21
645.1009927817
 31
0.0
  0
ELLIPSE
  5
3B5
330
1F
100
AcDbEntity
  8
0
  6
Continuous
 62
     7
370
    25
100
AcDbEllipse
 10
500.1995116772
 20
628.6465029585
 30
0.0
 11
10.9544511501033
 21
-10.9544511501033
 31
0.0
210
0.0
220
0.0
230
1.0
 40
0.7745966692
 41
2.482534617763385
 42
3.800650689416215
  0
LINE
  5
3B6
330
1F
100
AcDbEntity
  8
0
  6
Continuous
 62
     7
370
    25
100
AcDbLine
 10
483.7450323768
 20
632.1106074877
 30
0.0
 11
486.3431094356
 21
632.1106074877
 31
0.0
  0
LINE
  5
3B7
330
1F
100
AcDbEntity
  8
0
  6
Continuous
 62
     7
370
    25
100
AcDbLine
 10
496.7354027696
 20
642.5029157229
 30
0.0
 11
496.7354027696
 21
645.1009927817
 31
0.0
  0
LINE
  5
3B8
330
1F
100
AcDbEntity
  8
0
  6
Continuous
 62
     7
370
    25
100
AcDbLine
 10
486.3431094356
 20
632.1106074877
 30
0.0
 11
486.3431094356
 21
272.6026891299
 31
0.0
  0
LINE
  5
3B9
330
1F
100
AcDbEntity
  8
0
  6
Continuous
 62
     7
370
    25
100
AcDbLine
 10
483.7450323768
 20
272.6026891299
 30
0.0
 11
486.3431094356
 21
272.6026891299
 31
0.0
  0
LINE
  5
3BA
330
1F
100
AcDbEntity
  8
0
  6
Continuous
 62
     7
370
    25
100
AcDbLine
 10
992.3319904275
 20
272.6026891299
 30
0.0
 11
992.3319904275
 21
632.1106074877
 31
0.0
  0
LINE
  5
3BB
330
1F
100
AcDbEntity
  8
0
  6
Continuous
 62
     7
370
    25
100
AcDbLine
 10
992.3319904275
 20
632.1106074877
 30
0.0
 11
994.9300674863
 21
632.1106074877
 31
0.0
  0
LINE
  5
3BC
330
1F
100
AcDbEntity
  8
0
  6
Continuous
 62
     7
370
    25
100
AcDbLine
 10
992.3319904275
 20
272.6026891299
 30
0.0
 11
994.9300674863
 21
272.6026891299
 31
0.0
  0
LINE
  5
3BD
330
1F
100
AcDbEntity
  8
0
  6
Continuous
 62
     7
370
    25
100
AcDbLine
 10
981.9396821924
 20
642.5029157229
 30
0.0
 11
496.7354027696
 21
642.5029157229
 31
0.0
  0
LINE
  5
3BE
330
1F
100
AcDbEntity
  8
0
  6
Continuous
 62
     7
370
    25
100
AcDbLine
 10
981.9396821924
 20
642.5029157229
 30
0.0
 11
981.9396821924
 21
645.1009927817
 31
0.0
  0
ELLIPSE
  5
3BF
330
1F
100
AcDbEntity
  8
0
  6
Continuous
 62
     7
370
    25
100
AcDbEllipse
 10
494.4260089853
 20
274.6234174948
 30
0.0
 11
6.390096504226847
 21
6.39009650422696
 31
0.0
210
0.0
220
0.0
230
1.0
 40
0.7745966692
 41
2.482534617763383
 42
3.800650689416197
  0
LINE
  5
3C0
330
1F
100
AcDbEntity
  8
0
  6
Continuous
 62
     7
370
    25
100
AcDbLine
 10
492.4052892395
 20
263.9424322672
 30
0.0
 11
492.4052892395
 21
266.540509326
 31
0.0
  0
LINE
  5
3C1
330
1F
100
AcDbEntity
  8
0
  6
Continuous
 62
     7
370
    25
100
AcDbLine
 10
492.4052892395
 20
266.540509326
 30
0.0
 11
986.2698106237
 21
266.540509326
 31
0.0
  0
LINE
  5
3C2
330
1F
100
AcDbEntity
  8
0
  6
Continuous
 62
     7
370
    25
100
AcDbLine
 10
986.2698106237
 20
263.9424322672
 30
0.0
 11
986.2698106237
 21
266.540509326
 31
0.0
  0
ELLIPSE
  5
3C3
330
1F
100
AcDbEntity
  8
0
  6
Continuous
 62
     7
370
    25
100
AcDbEllipse
 10
984.2490944491
 20
274.6234174948
 30
0.0
 11
-6.390096504226904
 21
6.39009650422696
 31
0.0
210
0.0
220
0.0
230
1.0
 40
0.7745966692
 41
2.482534617763374
 42
3.80065068941623
  0
ELLIPSE
  5
3C4
330
1F
100
AcDbEntity
  8
0
  6
Continuous
 62
     7
370
    25
100
AcDbEllipse
 10
978.4755917572
 20
628.6465029585
 30
0.0
 11
10.95445115010341
 21
10.95445115010341
 31
0.0
210
0.0
220
0.0
230
1.0
 40
0.7745966692
 41
5.624127271353191
 42
6.942243343005996
  0
LINE
  5
3C5
330
1F
100
AcDbEntity
  8
0
  6
Continuous
 62
     8
370
    25
100
AcDbLine
 10
755.3643373914
 20
511.5658106782
 30
0.0
 11
755.8797983594
 21
510.8475188293
 31
0.0
  0
LWPOLYLINE
  5
3C6
330
1F
100
AcDbEntity
  8
0
  6
Continuous
 62
     8
370
    25
100
AcDbPolyline
 90
        3
 70
   128
 43
0.0
 10
758.8000385233
 20
504.3328540899
 10
758.8363601037
 20
504.1835053392
 10
759.1545296975
 20
502.5593439617
  0
LINE
  5
3C7
330
1F
100
AcDbEntity
  8
0
  6
Continuous
 62
     8
370
    25
100
AcDbLine
 10
758.9939026304
 20
495.5740223207
 30
0.0
 11
758.5627449818
 21
493.8337683246
 31
0.0
  0
LWPOLYLINE
  5
3C8
330
1F
100
AcDbEntity
  8
0
  6
Continuous
 62
     8
370
    25
100
AcDbPolyline
 90
        3
 70
   128
 43
0.0
 10
755.3414864607
 20
487.4448727035
 10
754.3916566439
 20
486.2796294304
 10
754.0615139671
 20
485.9134571428
  0
LWPOLYLINE
  5
3C9
330
1F
100
AcDbEntity
  8
0
  6
Continuous
 62
     8
370
    25
100
AcDbPolyline
 90
        3
 70
   128
 43
0.0
 10
748.3496753641
 20
481.611613793
 10
747.8701634474
 20
481.3782536924
 10
746.7072991796
 20
480.8755704701
  0
LINE
  5
3CA
330
1F
100
AcDbEntity
  8
0
  6
Continuous
 62
     8
370
    25
100
AcDbLine
 10
739.8643655844
 20
479.4788189732
 30
0.0
 11
738.0798546739
 21
479.511384064
 31
0.0
  0
LINE
  5
3CB
330
1F
100
AcDbEntity
  8
0
  6
Continuous
 62
     8
370
    25
100
AcDbLine
 10
731.1226813264
 20
481.2321855255
 30
0.0
 11
729.5141866572
 21
482.0434270926
 31
0.0
  0
LINE
  5
3CC
330
1F
100
AcDbEntity
  8
0
  6
Continuous
 62
     8
370
    25
100
AcDbLine
 10
724.0028953322
 20
486.6055841533
 30
0.0
 11
723.310766197
 21
487.4752175213
 31
0.0
  0
LINE
  5
3CD
330
1F
100
AcDbEntity
  8
0
  6
Continuous
 62
     8
370
    25
100
AcDbLine
 10
723.310766197
 20
487.4752175213
 30
0.0
 11
722.7953015037
 21
488.193507915
 31
0.0
  0
LWPOLYLINE
  5
3CE
330
1F
100
AcDbEntity
  8
0
  6
Continuous
 62
     8
370
    25
100
AcDbPolyline
 90
        3
 70
   128
 43
0.0
 10
719.9168702729
 20
494.5421467103
 10
719.8387434848
 20
494.8575214051
 10
719.520573891
 20
496.481683714
  0
LINE
  5
3CF
330
1F
100
AcDbEntity
  8
0
  6
Continuous
 62
     8
370
    25
100
AcDbLine
 10
719.6811972328
 20
503.4670053549
 30
0.0
 11
720.1147949465
 21
505.2154852577
 31
0.0
  0
LWPOLYLINE
  5
3D0
330
1F
100
AcDbEntity
  8
0
  6
Continuous
 62
     8
370
    25
100
AcDbPolyline
 90
        3
 70
   128
 43
0.0
 10
723.3336171277
 20
511.5961550303
 10
724.2834469445
 20
512.761397896
 10
724.6135896214
 20
513.1275697179
  0
LWPOLYLINE
  5
3D1
330
1F
100
AcDbEntity
  8
0
  6
Continuous
 62
     8
370
    25
100
AcDbPolyline
 90
        3
 70
   128
 43
0.0
 10
730.3132726021
 20
517.4232913681
 10
730.804940141
 20
517.6627735175
 10
731.9678044088
 20
518.1654567398
  0
LINE
  5
3D2
330
1F
100
AcDbEntity
  8
0
  6
Continuous
 62
     8
370
    25
100
AcDbLine
 10
738.8107342787
 20
519.5622077711
 30
0.0
 11
740.5952451892
 21
519.5296450086
 31
0.0
  0
LINE
  5
3D3
330
1F
100
AcDbEntity
  8
0
  6
Continuous
 62
     8
370
    25
100
AcDbLine
 10
747.5524259873
 20
517.8088421502
 30
0.0
 11
749.1609169312
 21
516.997600583
 31
0.0
  0
LINE
  5
3D4
330
1F
100
AcDbEntity
  8
0
  6
Continuous
 62
     8
370
    25
100
AcDbLine
 10
754.6722082563
 20
512.4354424455
 30
0.0
 11
755.3643373914
 21
511.5658106782
 31
0.0
  0
LINE
  5
3D5
330
1F
100
AcDbEntity
  8
0
  6
Continuous
 62
     8
370
    25
100
AcDbLine
 10
722.8241576024
 20
487.1094976091
 30
0.0
 11
723.5378412672
 21
486.2128224025
 31
0.0
  0
LINE
  5
3D6
330
1F
100
AcDbEntity
  8
0
  6
Continuous
 62
     8
370
    25
100
AcDbLine
 10
729.0492145486
 20
481.607512714
 30
0.0
 11
730.8680651851
 21
480.6792486027
 31
0.0
  0
LWPOLYLINE
  5
3D7
330
1F
100
AcDbEntity
  8
0
  6
Continuous
 62
     8
370
    25
100
AcDbPolyline
 90
        3
 70
   128
 43
0.0
 10
737.8473593064
 20
478.9169995614
 10
739.1311539479
 20
478.8642103352
 10
739.8808313675
 20
478.8703244679
  0
LWPOLYLINE
  5
3D8
330
1F
100
AcDbEntity
  8
0
  6
Continuous
 62
     8
370
    25
100
AcDbPolyline
 90
        3
 70
   128
 43
0.0
 10
746.9296096035
 20
480.3088993334
 10
747.0516948171
 20
480.3575935342
 10
748.7937299676
 20
481.1546147369
  0
LWPOLYLINE
  5
3D9
330
1F
100
AcDbEntity
  8
0
  6
Continuous
 62
     8
370
    25
100
AcDbPolyline
 90
        3
 70
   128
 43
0.0
 10
754.5095173784
 20
485.5013520258
 10
755.599656529
 20
486.7820080229
 10
755.8264745541
 20
487.0770013234
  0
LWPOLYLINE
  5
3DA
330
1F
100
AcDbEntity
  8
0
  6
Continuous
 62
     8
370
    25
100
AcDbPolyline
 90
        3
 70
   128
 43
0.0
 10
759.0917660065
 20
493.4792850666
 10
759.2365903922
 20
493.9749060698
 10
759.5905972787
 20
495.4536078997
  0
LINE
  5
3DB
330
1F
100
AcDbEntity
  8
0
  6
Continuous
 62
     8
370
    25
100
AcDbLine
 10
759.7560448714
 20
502.652692286
 30
0.0
 11
759.3483938046
 21
504.6480676659
 31
0.0
  0
LINE
  5
3DC
330
1F
100
AcDbEntity
  8
0
  6
Continuous
 62
     8
370
    25
100
AcDbLine
 10
756.3807902999
 20
511.193283511
 30
0.0
 11
755.8509422608
 21
511.9315298774
 31
0.0
  0
LINE
  5
3DD
330
1F
100
AcDbEntity
  8
0
  6
Continuous
 62
     8
370
    25
100
AcDbLine
 10
755.8509422608
 20
511.9315298774
 30
0.0
 11
755.137258596
 21
512.8282053896
 31
0.0
  0
LINE
  5
3DE
330
1F
100
AcDbEntity
  8
0
  6
Continuous
 62
     8
370
    25
100
AcDbLine
 10
749.6258853145
 20
517.4335154273
 30
0.0
 11
747.807034678
 21
518.3617776759
 31
0.0
  0
LWPOLYLINE
  5
3DF
330
1F
100
AcDbEntity
  8
0
  6
Continuous
 62
     8
370
    25
100
AcDbPolyline
 90
        3
 70
   128
 43
0.0
 10
740.8277405568
 20
520.1240299769
 10
739.5439459153
 20
520.1768173404
 10
738.7942759462
 20
520.1707041391
  0
LWPOLYLINE
  5
3E0
330
1F
100
AcDbEntity
  8
0
  6
Continuous
 62
     8
370
    25
100
AcDbPolyline
 90
        3
 70
   128
 43
0.0
 10
731.745493985
 20
518.7321274109
 10
731.6234124966
 20
518.6834341415
 10
729.8813773461
 20
517.8864120074
  0
LWPOLYLINE
  5
3E1
330
1F
100
AcDbEntity
  8
0
  6
Continuous
 62
     8
370
    25
100
AcDbPolyline
 90
        3
 70
   128
 43
0.0
 10
724.1655862101
 20
513.5396762319
 10
723.0754507847
 20
512.2590201475
 10
722.8486327596
 20
511.9640255846
  0
LWPOLYLINE
  5
3E2
330
1F
100
AcDbEntity
  8
0
  6
Continuous
 62
     8
370
    25
100
AcDbPolyline
 90
        3
 70
   128
 43
0.0
 10
719.5833375819
 20
505.5617416777
 10
719.4385131963
 20
505.0661216058
 10
719.0845100351
 20
503.5874197759
  0
LINE
  5
3E3
330
1F
100
AcDbEntity
  8
0
  6
Continuous
 62
     8
370
    25
100
AcDbLine
 10
718.9190549918
 20
496.388336321
 30
0.0
 11
719.3267135091
 21
494.3929590784
 31
0.0
  0
LINE
  5
3E4
330
1F
100
AcDbEntity
  8
0
  6
Continuous
 62
     8
370
    25
100
AcDbLine
 10
722.2943170138
 20
487.8477431751
 30
0.0
 11
722.8241576024
 21
487.1094976091
 31
0.0
  0
LINE
  5
3E5
330
1F
100
AcDbEntity
  8
0
  6
Continuous
 62
     8
370
    25
100
AcDbLine
 10
721.7147773274
 20
486.2757157219
 30
0.0
 11
722.4746881195
 21
485.3208395919
 31
0.0
  0
LINE
  5
3E6
330
1F
100
AcDbEntity
  8
0
  6
Continuous
 62
     8
370
    25
100
AcDbLine
 10
728.3587766953
 20
480.4036772378
 30
0.0
 11
730.3002154596
 21
479.4129660853
 31
0.0
  0
LWPOLYLINE
  5
3E7
330
1F
100
AcDbEntity
  8
0
  6
Continuous
 62
     8
370
    25
100
AcDbPolyline
 90
        3
 70
   128
 43
0.0
 10
737.7466721602
 20
477.5328809895
 10
739.1172884174
 20
477.4765033774
 10
739.9141280122
 20
477.4829444044
  0
LWPOLYLINE
  5
3E8
330
1F
100
AcDbEntity
  8
0
  6
Continuous
 62
     8
370
    25
100
AcDbPolyline
 90
        3
 70
   128
 43
0.0
 10
747.4465085335
 20
479.0209603064
 10
747.5699348517
 20
479.0702133008
 10
749.4223876067
 20
479.9173778422
  0
LWPOLYLINE
  5
3E9
330
1F
100
AcDbEntity
  8
0
  6
Continuous
 62
     8
370
    25
100
AcDbPolyline
 90
        3
 70
   128
 43
0.0
 10
755.532400138
 20
484.5634514034
 10
756.6921575137
 20
485.9262251096
 10
756.9327442117
 20
486.2390919855
  0
LWPOLYLINE
  5
3EA
330
1F
100
AcDbEntity
  8
0
  6
Continuous
 62
     8
370
    25
100
AcDbPolyline
 90
        3
 70
   128
 43
0.0
 10
760.417432911
 20
493.068730136
 10
760.5734257169
 20
493.6023477033
 10
760.9529210396
 20
495.1889111229
  0
LINE
  5
3EB
330
1F
100
AcDbEntity
  8
0
  6
Continuous
 62
     8
370
    25
100
AcDbLine
 10
761.1284194656
 20
502.8589169063
 30
0.0
 11
760.6939835616
 21
504.9876688548
 31
0.0
  0
LINE
  5
3EC
330
1F
100
AcDbEntity
  8
0
  6
Continuous
 62
     8
370
    25
100
AcDbLine
 10
757.5219510265
 20
511.983035741
 30
0.0
 11
756.9603262611
 21
512.7653113134
 31
0.0
  0
LINE
  5
3ED
330
1F
100
AcDbEntity
  8
0
  6
Continuous
 62
     8
370
    25
100
AcDbLine
 10
756.9603262611
 20
512.7653113134
 30
0.0
 11
756.2004117437
 21
513.720187036
 31
0.0
  0
LINE
  5
3EE
330
1F
100
AcDbEntity
  8
0
  6
Continuous
 62
     8
370
    25
100
AcDbLine
 10
750.3163231679
 20
518.6373485752
 30
0.0
 11
748.3748881288
 21
519.6280597277
 31
0.0
  0
LWPOLYLINE
  5
3EF
330
1F
100
AcDbEntity
  8
0
  6
Continuous
 62
     8
370
    25
100
AcDbPolyline
 90
        3
 70
   128
 43
0.0
 10
740.9284351535
 20
521.5081466861
 10
739.5578114458
 20
521.5645252295
 10
738.7609718509
 20
521.5580842026
  0
LWPOLYLINE
  5
3F0
330
1F
100
AcDbEntity
  8
0
  6
Continuous
 62
     8
370
    25
100
AcDbPolyline
 90
        3
 70
   128
 43
0.0
 10
731.2285913296
 20
520.0200683005
 10
731.1051687368
 20
519.9708125122
 10
729.2527122565
 20
519.1236479707
  0
LWPOLYLINE
  5
3F1
330
1F
100
AcDbEntity
  8
0
  6
Continuous
 62
     8
370
    25
100
AcDbPolyline
 90
        3
 70
   128
 43
0.0
 10
723.1426997252
 20
514.4775758066
 10
721.9829498001
 20
513.1148031481
 10
721.7423593767
 20
512.8019346424
  0
LWPOLYLINE
  5
3F2
330
1F
100
AcDbEntity
  8
0
  6
Continuous
 62
     8
370
    25
100
AcDbPolyline
 90
        3
 70
   128
 43
0.0
 10
718.2576706775
 20
505.9722966083
 10
718.1016815968
 20
505.438680438
 10
717.7221825488
 20
503.8521165528
  0
LINE
  5
3F3
330
1F
100
AcDbEntity
  8
0
  6
Continuous
 62
     8
370
    25
100
AcDbLine
 10
717.5466841229
 20
496.182109838
 30
0.0
 11
717.9811200269
 21
494.0533592865
 31
0.0
  0
LINE
  5
3F4
330
1F
100
AcDbEntity
  8
0
  6
Continuous
 62
     8
370
    25
100
AcDbLine
 10
721.1531488367
 20
487.0579914289
 30
0.0
 11
721.7147773274
 21
486.2757157219
 31
0.0
  0
LINE
  5
3F5
330
1F
100
AcDbEntity
  8
0
  6
Continuous
 62
     8
370
    25
100
AcDbLine
 10
760.6570137806
 20
515.5436402686
 30
0.0
 11
761.335530705
 21
514.5986067631
 31
0.0
  0
LWPOLYLINE
  5
3F6
330
1F
100
AcDbEntity
  8
0
  6
Continuous
 62
     8
370
    25
100
AcDbPolyline
 90
        3
 70
   128
 43
0.0
 10
765.1729671426
 20
506.1380198725
 10
765.580484099
 20
504.2711446561
 10
765.6991271444
 20
503.5612216719
  0
LWPOLYLINE
  5
3F7
330
1F
100
AcDbEntity
  8
0
  6
Continuous
 62
     8
370
    25
100
AcDbPolyline
 90
        3
 70
   128
 43
0.0
 10
765.4855711527
 20
494.2725367412
 10
764.9211747714
 20
491.9880262144
 10
764.8419378467
 20
491.7239650652
  0
LINE
  5
3F8
330
1F
100
AcDbEntity
  8
0
  6
Continuous
 62
     8
370
    25
100
AcDbLine
 10
760.6186134883
 20
483.4464163553
 30
0.0
 11
758.9342681833
 21
481.4310471095
 31
0.0
  0
LWPOLYLINE
  5
3F9
330
1F
100
AcDbEntity
  8
0
  6
Continuous
 62
     8
370
    25
100
AcDbPolyline
 90
        3
 70
   128
 43
0.0
 10
751.5359906622
 20
475.8043127634
 10
751.4151645966
 20
475.7425549008
 10
749.1464926072
 20
474.7204199933
  0
LWPOLYLINE
  5
3FA
330
1F
100
AcDbEntity
  8
0
  6
Continuous
 62
     8
370
    25
100
AcDbPolyline
 90
        3
 70
   128
 43
0.0
 10
740.0368316241
 20
472.8602232911
 10
739.4589720436
 20
472.8513310232
 10
737.4168722101
 20
472.9203057044
  0
LWPOLYLINE
  5
3FB
330
1F
100
AcDbEntity
  8
0
  6
Continuous
 62
     8
370
    25
100
AcDbPolyline
 90
        3
 70
   128
 43
0.0
 10
728.3990955122
 20
475.1974741496
 10
727.4769520529
 20
475.6335678079
 10
726.0671420165
 20
476.3870683067
  0
LINE
  5
3FC
330
1F
100
AcDbEntity
  8
0
  6
Continuous
 62
     8
370
    25
100
AcDbLine
 10
718.9296422668
 20
482.3514345601
 30
0.0
 11
718.0180898078
 21
483.4973871742
 31
0.0
  0
LINE
  5
3FD
330
1F
100
AcDbEntity
  8
0
  6
Continuous
 62
     8
370
    25
100
AcDbLine
 10
718.0180898078
 20
483.4973871742
 30
0.0
 11
717.3395691581
 21
484.4424202141
 31
0.0
  0
LWPOLYLINE
  5
3FE
330
1F
100
AcDbEntity
  8
0
  6
Continuous
 62
     8
370
    25
100
AcDbPolyline
 90
        3
 70
   128
 43
0.0
 10
713.5021364458
 20
492.9030068718
 10
713.0946194895
 20
494.7698820882
 10
712.9759764441
 20
495.4798069351
  0
LWPOLYLINE
  5
3FF
330
1F
100
AcDbEntity
  8
0
  6
Continuous
 62
     8
370
    25
100
AcDbPolyline
 90
        3
 70
   128
 43
0.0
 10
713.189536161
 20
504.7684914001
 10
713.7539288171
 20
507.0530014612
 10
713.8331620164
 20
507.3170630761
  0
LINE
  5
400
330
1F
100
AcDbEntity
  8
0
  6
Continuous
 62
     8
370
    25
100
AcDbLine
 10
718.0564938255
 20
515.5946115531
 30
0.0
 11
719.7408354052
 21
517.6099805661
 31
0.0
  0
LWPOLYLINE
  5
401
330
1F
100
AcDbEntity
  8
0
  6
Continuous
 62
     8
370
    25
100
AcDbPolyline
 90
        3
 70
   128
 43
0.0
 10
727.1391166516
 20
523.2367149122
 10
727.2599389918
 20
523.2984727748
 10
729.528607256
 20
524.320606751
  0
LWPOLYLINE
  5
402
330
1F
100
AcDbEntity
  8
0
  6
Continuous
 62
     8
370
    25
100
AcDbPolyline
 90
        3
 70
   128
 43
0.0
 10
738.6382756897
 20
526.1808043845
 10
739.2161278196
 20
526.1896966525
 10
741.2582276531
 20
526.1207229026
  0
LWPOLYLINE
  5
403
330
1F
100
AcDbEntity
  8
0
  6
Continuous
 62
     8
370
    25
100
AcDbPolyline
 90
        3
 70
   128
 43
0.0
 10
750.2760080762
 20
523.843553526
 10
751.1981515356
 20
523.4074598678
 10
752.6079578467
 20
522.6539603003
  0
LINE
  5
404
330
1F
100
AcDbEntity
  8
0
  6
Continuous
 62
     8
370
    25
100
AcDbLine
 10
759.7454650469
 20
516.6895935811
 30
0.0
 11
760.6570137806
 21
515.5436402686
 31
0.0
  0
SPLINE
  5
405
330
1F
100
AcDbEntity
  8
0
  6
Continuous
 62
     8
370
    25
100
AcDbSpline
210
0.0
220
0.0
230
1.0
 70
     8
 71
     3
 72
     9
 73
     5
 74
     0
 42
0.000000001
 43
0.00000001
 40
0.0
 40
0.0
 40
0.0
 40
0.0
 40
0.6626734133335579
 40
1.0
 40
1.0
 40
1.0
 40
1.0
 10
749.2791874476036
 20
486.4489325821685
 30
0.0
 10
748.2700430413332
 20
487.7757914277478
 30
0.0
 10
746.7472048136852
 20
489.7780731231981
 30
0.0
 10
745.2516861072793
 20
491.7444214411034
 30
0.0
 10
744.7472078867515
 20
492.4077230073797
 30
0.0
  0
SPLINE
  5
406
330
1F
100
AcDbEntity
  8
0
  6
Continuous
 62
     8
370
    25
100
AcDbSpline
210
0.0
220
0.0
230
1.0
 70
     8
 71
     3
 72
     9
 73
     5
 74
     0
 42
0.000000001
 43
0.00000001
 40
0.0
 40
0.0
 40
0.0
 40
0.0
 40
0.4794749248704464
 40
1.0
 40
1.0
 40
1.0
 40
1.0
 10
733.9278919764122
 20
506.6333046682464
 30
0.0
 10
733.2094744226475
 20
507.5779040192626
 30
0.0
 10
731.711132139245
 20
509.547974406721
 30
0.0
 10
730.1884872571883
 20
511.5499934926713
 30
0.0
 10
729.3959124155601
 20
512.5920946277963
 30
0.0
  0
SPLINE
  5
407
330
1F
100
AcDbEntity
  8
0
  6
Continuous
 62
     8
370
    25
100
AcDbSpline
210
0.0
220
0.0
230
1.0
 70
     8
 71
     3
 72
    12
 73
     8
 74
     0
 42
0.000000001
 43
0.00000001
 40
0.0
 40
0.0
 40
0.0
 40
0.0
 40
0.3049398133780482
 40
0.5250514215372293
 40
0.755794929949671
 40
0.986538849527048
 40
1.0
 40
1.0
 40
1.0
 40
1.0
 10
746.799991852816
 20
496.1216949425923
 30
0.0
 10
746.9002695661588
 20
496.0760228291796
 30
0.0
 10
747.0729297227842
 20
495.9973836780426
 30
0.0
 10
747.2862981072096
 20
495.9002068325427
 30
0.0
 10
747.4270646930314
 20
495.8360876648425
 30
0.0
 10
747.5023553279706
 20
495.8018001643233
 30
0.0
 10
747.5086990276106
 20
495.7989115478342
 30
0.0
 10
747.509048707064
 20
495.7987523205864
 30
0.0
  0
LWPOLYLINE
  5
408
330
1F
100
AcDbEntity
  8
0
  6
Continuous
 62
     8
370
    25
100
AcDbPolyline
 90
        3
 70
   128
 43
0.0
 10
737.135746903
 20
468.9186445006
 10
739.4344000288
 20
468.839690698
 10
740.1331452795
 20
468.8498551525
  0
LWPOLYLINE
  5
409
330
1F
100
AcDbEntity
  8
0
  6
Continuous
 62
     8
370
    25
100
AcDbPolyline
 90
        3
 70
   128
 43
0.0
 10
750.6315274306
 20
470.9938863792
 10
752.3079900213
 20
471.7160180711
 10
753.3603547283
 20
472.231626188
  0
LWPOLYLINE
  5
40A
330
1F
100
AcDbEntity
  8
0
  6
Continuous
 62
     8
370
    25
100
AcDbPolyline
 90
        3
 70
   128
 43
0.0
 10
761.8893845149
 20
478.7181770928
 10
762.7840055295
 20
479.7319836483
 10
763.8116045065
 20
481.0179985628
  0
LWPOLYLINE
  5
40B
330
1F
100
AcDbEntity
  8
0
  6
Continuous
 62
     8
370
    25
100
AcDbPolyline
 90
        3
 70
   128
 43
0.0
 10
768.6811996766
 20
490.5610069666
 10
768.9259661503
 20
491.4058420375
 10
769.4161323972
 20
493.4706302859
  0
LWPOLYLINE
  5
40C
330
1F
100
AcDbEntity
  8
0
  6
Continuous
 62
     8
370
    25
100
AcDbPolyline
 90
        3
 70
   128
 43
0.0
 10
769.6630222865
 20
504.1775653638
 10
769.5985300608
 20
504.5796918251
 10
769.0614028044
 20
507.1241284289
  0
LINE
  5
40D
330
1F
100
AcDbEntity
  8
0
  6
Continuous
 62
     8
370
    25
100
AcDbLine
 10
764.6404368945
 20
516.87234701
 30
0.0
 11
762.8166092702
 21
519.270353628
 31
0.0
  0
LWPOLYLINE
  5
40E
330
1F
100
AcDbEntity
  8
0
  6
Continuous
 62
     8
370
    25
100
AcDbPolyline
 90
        3
 70
   128
 43
0.0
 10
754.6070156761
 20
526.1318987735
 10
752.1322010227
 20
527.406339211
 10
751.9214389988
 20
527.5020791717
  0
LWPOLYLINE
  5
40F
330
1F
100
AcDbEntity
  8
0
  6
Continuous
 62
     8
370
    25
100
AcDbPolyline
 90
        3
 70
   128
 43
0.0
 10
741.5482638546
 20
530.1217405625
 10
739.2406998344
 20
530.201335115
 10
738.5352714129
 20
530.1909974344
  0
LWPOLYLINE
  5
410
330
1F
100
AcDbEntity
  8
0
  6
Continuous
 62
     8
370
    25
100
AcDbPolyline
 90
        3
 70
   128
 43
0.0
 10
728.0496260293
 20
528.0495329328
 10
726.3671098419
 20
527.3250086732
 10
725.3089858361
 20
526.8064370878
  0
LWPOLYLINE
  5
411
330
1F
100
AcDbEntity
  8
0
  6
Continuous
 62
     8
370
    25
100
AcDbPolyline
 90
        3
 70
   128
 43
0.0
 10
716.7863039442
 20
520.3234857448
 10
715.8910943337
 20
519.309044493
 10
714.8607945211
 20
518.0194514372
  0
LWPOLYLINE
  5
412
330
1F
100
AcDbEntity
  8
0
  6
Continuous
 62
     8
370
    25
100
AcDbPolyline
 90
        3
 70
   128
 43
0.0
 10
709.9928831823
 20
508.4766733028
 10
709.7491337128
 20
507.6351861038
 10
709.2588333555
 20
505.5697268375
  0
LWPOLYLINE
  5
413
330
1F
100
AcDbEntity
  8
0
  6
Continuous
 62
     8
370
    25
100
AcDbPolyline
 90
        3
 70
   128
 43
0.0
 10
709.0130014487
 20
494.857474839
 10
709.0765698023
 20
494.4613363162
 10
709.6124863394
 20
491.921642007
  0
LINE
  5
414
330
1F
100
AcDbEntity
  8
0
  6
Continuous
 62
     8
370
    25
100
AcDbLine
 10
714.0385186442
 20
482.16305734
 30
0.0
 11
715.8529436358
 21
479.7772743307
 31
0.0
  0
LWPOLYLINE
  5
415
330
1F
100
AcDbEntity
  8
0
  6
Continuous
 62
     8
370
    25
100
AcDbPolyline
 90
        3
 70
   128
 43
0.0
 10
724.0731058784
 20
472.9062501841
 10
726.5429062911
 20
471.6346875333
 10
726.7462326356
 20
471.5422900893
  0
ENDSEC
  0
SECTION
  2
OBJECTS
  0
DICTIONARY
  5
C
330
0
100
AcDbDictionary
281
     1
  3
ACAD_GROUP
350
D
  3
ACAD_LAYOUT
350
1A
  3
ACAD_MLINESTYLE
350
17
  3
ACAD_PLOTSETTINGS
350
19
  3
ACAD_PLOTSTYLENAME
350
E
  3
ACAD_SCALELIST
350
47
  0
DICTIONARY
  5
D
102
{ACAD_REACTORS
330
C
102
}
330
C
100
AcDbDictionary
281
     1
  0
DICTIONARY
  5
1A
102
{ACAD_REACTORS
330
C
102
}
330
C
100
AcDbDictionary
281
     1
  3
Layout1
350
1E
  3
Layout2
350
26
  3
Model
350
22
  0
DICTIONARY
  5
17
102
{ACAD_REACTORS
330
C
102
}
330
C
100
AcDbDictionary
281
     1
  3
Standard
350
18
  0
DICTIONARY
  5
19
102
{ACAD_REACTORS
330
C
102
}
330
C
100
AcDbDictionary
281
     1
  0
ACDBDICTIONARYWDFLT
  5
E
102
{ACAD_REACTORS
330
C
102
}
330
C
100
AcDbDictionary
281
     1
  3
Normal
350
F
100
AcDbDictionaryWithDefault
340
F
  0
DICTIONARY
  5
47
102
{ACAD_REACTORS
330
C
102
}
330
C
100
AcDbDictionary
281
     1
  3
A0
350
48
  3
A1
350
49
  3
A2
350
4A
  3
A3
350
4B
  3
A4
350
4C
  3
A5
350
4D
  3
A6
350
4E
  3
A7
350
4F
  3
A8
350
50
  3
A9
350
51
  3
B0
350
52
  3
B1
350
53
  3
B2
350
54
  3
B3
350
55
  3
B4
350
56
  3
B5
350
57
  3
B6
350
58
  3
B7
350
59
  3
B8
350
5A
  3
B9
350
5B
  3
C0
350
5C
  3
C1
350
5D
  3
C2
350
5E
  3
C3
350
5F
  3
C4
350
60
  3
C5
350
61
  3
C6
350
62
  3
C7
350
63
  3
C8
350
64
  3
C9
350
65
  3
D0
350
66
  3
D1
350
67
  3
D2
350
68
  0
LAYOUT
  5
1E
102
{ACAD_REACTORS
330
1A
102
}
330
1A
100
AcDbPlotSettings
  1

  2
none_device
  4

  6

 40
0.0
 41
0.0
 42
0.0
 43
0.0
 44
0.0
 45
0.0
 46
0.0
 47
0.0
 48
0.0
 49
0.0
140
0.0
141
0.0
142
1.0
143
1.0
 70
   688
 72
     1
 73
     0
 74
     5
  7

 75
    16
147
1.0
148
0.0
149
0.0
100
AcDbLayout
  1
Layout1
 70
     1
 71
     1
 10
0.0
 20
0.0
 11
420.0
 21
297.0
 12
0.0
 22
0.0
 32
0.0
 14
1.0000000000E+20
 24
1.0000000000E+20
 34
1.0000000000E+20
 15
-1.0000000000E+20
 25
-1.0000000000E+20
 35
-1.0000000000E+20
146
0.0
 13
0.0
 23
0.0
 33
0.0
 16
1.0
 26
0.0
 36
0.0
 17
0.0
 27
1.0
 37
0.0
 76
     0
330
1B
  0
LAYOUT
  5
26
102
{ACAD_REACTORS
330
1A
102
}
330
1A
100
AcDbPlotSettings
  1

  2
none_device
  4

  6

 40
0.0
 41
0.0
 42
0.0
 43
0.0
 44
0.0
 45
0.0
 46
0.0
 47
0.0
 48
0.0
 49
0.0
140
0.0
141
0.0
142
1.0
143
1.0
 70
   688
 72
     1
 73
     0
 74
     5
  7

 75
    16
147
1.0
148
0.0
149
0.0
100
AcDbLayout
  1
Layout2
 70
     1
 71
     2
 10
0.0
 20
0.0
 11
0.0
 21
0.0
 12
0.0
 22
0.0
 32
0.0
 14
0.0
 24
0.0
 34
0.0
 15
0.0
 25
0.0
 35
0.0
146
0.0
 13
0.0
 23
0.0
 33
0.0
 16
1.0
 26
0.0
 36
0.0
 17
0.0
 27
1.0
 37
0.0
 76
     0
330
23
  0
LAYOUT
  5
22
102
{ACAD_REACTORS
330
1A
102
}
330
1A
100
AcDbPlotSettings
  1

  2
none_device
  4
Letter_(8.50_x_11.00_Inches)
  6

 40
6.35
 41
6.35
 42
6.35000508
 43
6.35000508
 44
215.9
 45
279.4
 46
0.0
 47
0.0
 48
0.0
 49
0.0
140
0.0
141
0.0
142
1.0
143
1.0
 70
  1712
 72
     1
 73
     0
 74
     0
  7

 75
     0
147
1.0
148
0.0
149
0.0
100
AcDbLayout
  1
Model
 70
     1
 71
     0
 10
0.0
 20
0.0
 11
1600.0
 21
900.0
 12
0.0
 22
0.0
 32
0.0
 14
0.0
 24
0.0
 34
0.0
 15
1600.0
 25
900.0
 35
0.0
146
0.0
 13
0.0
 23
0.0
 33
0.0
 16
1.0
 26
0.0
 36
0.0
 17
0.0
 27
1.0
 37
0.0
 76
     0
330
1F
331
29
  0
MLINESTYLE
  5
18
102
{ACAD_REACTORS
330
17
102
}
330
17
100
AcDbMlineStyle
  2
Standard
 70
     0
  3

 62
   256
 51
90.0
 52
90.0
 71
     2
 49
0.5
 62
   256
  6
BYLAYER
 49
-0.5
 62
   256
  6
BYLAYER
  0
ACDBPLACEHOLDER
  5
F
102
{ACAD_REACTORS
330
E
102
}
330
E
  0
SCALE
  5
48
102
{ACAD_REACTORS
330
47
102
}
330
47
100
AcDbScale
 70
     0
300
1:1
140
1.0
141
1.0
290
     1
  0
SCALE
  5
49
102
{ACAD_REACTORS
330
47
102
}
330
47
100
AcDbScale
 70
     0
300
1:2
140
1.0
141
2.0
290
     0
  0
SCALE
  5
4A
102
{ACAD_REACTORS
330
47
102
}
330
47
100
AcDbScale
 70
     0
300
1:4
140
1.0
141
4.0
290
     0
  0
SCALE
  5
4B
102
{ACAD_REACTORS
330
47
102
}
330
47
100
AcDbScale
 70
     0
300
1:5
140
1.0
141
5.0
290
     0
  0
SCALE
  5
4C
102
{ACAD_REACTORS
330
47
102
}
330
47
100
AcDbScale
 70
     0
300
1:8
140
1.0
141
8.0
290
     0
  0
SCALE
  5
4D
102
{ACAD_REACTORS
330
47
102
}
330
47
100
AcDbScale
 70
     0
300
1:10
140
1.0
141
10.0
290
     0
  0
SCALE
  5
4E
102
{ACAD_REACTORS
330
47
102
}
330
47
100
AcDbScale
 70
     0
300
1:16
140
1.0
141
16.0
290
     0
  0
SCALE
  5
4F
102
{ACAD_REACTORS
330
47
102
}
330
47
100
AcDbScale
 70
     0
300
1:20
140
1.0
141
20.0
290
     0
  0
SCALE
  5
50
102
{ACAD_REACTORS
330
47
102
}
330
47
100
AcDbScale
 70
     0
300
1:30
140
1.0
141
30.0
290
     0
  0
SCALE
  5
51
102
{ACAD_REACTORS
330
47
102
}
330
47
100
AcDbScale
 70
     0
300
1:40
140
1.0
141
40.0
290
     0
  0
SCALE
  5
52
102
{ACAD_REACTORS
330
47
102
}
330
47
100
AcDbScale
 70
     0
300
1:50
140
1.0
141
50.0
290
     0
  0
SCALE
  5
53
102
{ACAD_REACTORS
330
47
102
}
330
47
100
AcDbScale
 70
     0
300
1:100
140
1.0
141
100.0
290
     0
  0
SCALE
  5
54
102
{ACAD_REACTORS
330
47
102
}
330
47
100
AcDbScale
 70
     0
300
2:1
140
2.0
141
1.0
290
     0
  0
SCALE
  5
55
102
{ACAD_REACTORS
330
47
102
}
330
47
100
AcDbScale
 70
     0
300
4:1
140
4.0
141
1.0
290
     0
  0
SCALE
  5
56
102
{ACAD_REACTORS
330
47
102
}
330
47
100
AcDbScale
 70
     0
300
8:1
140
8.0
141
1.0
290
     0
  0
SCALE
  5
57
102
{ACAD_REACTORS
330
47
102
}
330
47
100
AcDbScale
 70
     0
300
10:1
140
10.0
141
1.0
290
     0
  0
SCALE
  5
58
102
{ACAD_REACTORS
330
47
102
}
330
47
100
AcDbScale
 70
     0
300
100:1
140
100.0
141
1.0
290
     0
  0
SCALE
  5
59
102
{ACAD_REACTORS
330
47
102
}
330
47
100
AcDbScale
 70
     0
300
1/128" = 1'-0"
140
0.0078125
141
12.0
290
     0
  0
SCALE
  5
5A
102
{ACAD_REACTORS
330
47
102
}
330
47
100
AcDbScale
 70
     0
300
1/64" = 1'-0"
140
0.015625
141
12.0
290
     0
  0
SCALE
  5
5B
102
{ACAD_REACTORS
330
47
102
}
330
47
100
AcDbScale
 70
     0
300
1/32" = 1'-0"
140
0.03125
141
12.0
290
     0
  0
SCALE
  5
5C
102
{ACAD_REACTORS
330
47
102
}
330
47
100
AcDbScale
 70
     0
300
1/16" = 1'-0"
140
0.0625
141
12.0
290
     0
  0
SCALE
  5
5D
102
{ACAD_REACTORS
330
47
102
}
330
47
100
AcDbScale
 70
     0
300
3/32" = 1'-0"
140
0.09375
141
12.0
290
     0
  0
SCALE
  5
5E
102
{ACAD_REACTORS
330
47
102
}
330
47
100
AcDbScale
 70
     0
300
1/8" = 1'-0"
140
0.125
141
12.0
290
     0
  0
SCALE
  5
5F
102
{ACAD_REACTORS
330
47
102
}
330
47
100
AcDbScale
 70
     0
300
3/16" = 1'-0"
140
0.1875
141
12.0
290
     0
  0
SCALE
  5
60
102
{ACAD_REACTORS
330
47
102
}
330
47
100
AcDbScale
 70
     0
300
1/4" = 1'-0"
140
0.25
141
12.0
290
     0
  0
SCALE
  5
61
102
{ACAD_REACTORS
330
47
102
}
330
47
100
AcDbScale
 70
     0
300
3/8" = 1'-0"
140
0.375
141
12.0
290
     0
  0
SCALE
  5
62
102
{ACAD_REACTORS
330
47
102
}
330
47
100
AcDbScale
 70
     0
300
1/2" = 1'-0"
140
0.5
141
12.0
290
     0
  0
SCALE
  5
63
102
{ACAD_REACTORS
330
47
102
}
330
47
100
AcDbScale
 70
     0
300
3/4" = 1'-0"
140
0.75
141
12.0
290
     0
  0
SCALE
  5
64
102
{ACAD_REACTORS
330
47
102
}
330
47
100
AcDbScale
 70
     0
300
1" = 1'-0"
140
1.0
141
12.0
290
     0
  0
SCALE
  5
65
102
{ACAD_REACTORS
330
47
102
}
330
47
100
AcDbScale
 70
     0
300
1-1/2" = 1'-0"
140
1.5
141
12.0
290
     0
  0
SCALE
  5
66
102
{ACAD_REACTORS
330
47
102
}
330
47
100
AcDbScale
 70
     0
300
3" = 1'-0"
140
3.0
141
12.0
290
     0
  0
SCALE
  5
67
102
{ACAD_REACTORS
330
47
102
}
330
47
100
AcDbScale
 70
     0
300
6" = 1'-0"
140
6.0
141
12.0
290
     0
  0
SCALE
  5
68
102
{ACAD_REACTORS
330
47
102
}
330
47
100
AcDbScale
 70
     0
300
1'-0" = 1'-0"
140
12.0
141
12.0
290
     0
  0
ENDSEC
  0
EOF
