  0
SECTION
  2
HEADER
  9
$ACADVER
  1
AC1015
  9
$ACADMAINTVER
 70
     6
  9
$DWGCODEPAGE
  3
ANSI_1252
  9
$INSBASE
 10
0.0
 20
0.0
 30
0.0
  9
$EXTMIN
 10
0.0
 20
0.0
 30
0.0
  9
$EXTMAX
 10
600.0
 20
450.0
 30
0.0
  9
$LIMMIN
 10
0.0
 20
0.0
  9
$LIMMAX
 10
600.0
 20
450.0
  9
$ORTHOMODE
 70
     0
  9
$REGENMODE
 70
     1
  9
$FILLMODE
 70
     1
  9
$QTEXTMODE
 70
     0
  9
$MIRRTEXT
 70
     1
  9
$LTSCALE
 40
1.0
  9
$ATTMODE
 70
     1
  9
$TEXTSIZE
 40
3.5
  9
$TRACEWID
 40
1.0
  9
$TEXTSTYLE
  7
Standard
  9
$CLAYER
  8
0
  9
$CELTYPE
  6
ByLayer
  9
$CECOLOR
 62
   256
  9
$CELTSCALE
 40
1.0
  9
$DISPSILH
 70
     0
  9
$DIMSCALE
 40
1.0
  9
$DIMASZ
 40
3.302
  9
$DIMEXO
 40
1.0
  9
$DIMDLI
 40
3.75
  9
$DIMRND
 40
0.0
  9
$DIMDLE
 40
0.0
  9
$DIMEXE
 40
1.0
  9
$DIMTP
 40
0.0
  9
$DIMTM
 40
0.0
  9
$DIMTXT
 40
3.5
  9
$DIMCEN
 40
2.5
  9
$DIMTSZ
 40
0.0
  9
$DIMTOL
 70
     0
  9
$DIMLIM
 70
     0
  9
$DIMTIH
 70
     1
  9
$DIMTOH
 70
     1
  9
$DIMSE1
 70
     0
  9
$DIMSE2
 70
     0
  9
$DIMTAD
 70
     1
  9
$DIMZIN
 70
     1
  9
$DIMBLK
  1

  9
$DIMASO
 70
     1
  9
$DIMSHO
 70
     1
  9
$DIMPOST
  1

  9
$DIMAPOST
  1

  9
$DIMALT
 70
     0
  9
$DIMALTD
 70
     3
  9
$DIMALTF
 40
0.0393700787
  9
$DIMLFAC
 40
1.0
  9
$DIMTOFL
 70
     1
  9
$DIMTVP
 40
0.0
  9
$DIMTIX
 70
     0
  9
$DIMSOXD
 70
     0
  9
$DIMSAH
 70
     0
  9
$DIMBLK1
  1

  9
$DIMBLK2
  1

  9
$DIMSTYLE
  2
ISO-25
  9
$DIMCLRD
 70
     0
  9
$DIMCLRE
 70
     0
  9
$DIMCLRT
 70
     0
  9
$DIMTFAC
 40
1.0
  9
$DIMGAP
 40
1.524
  9
$DIMJUST
 70
     0
  9
$DIMSD1
 70
     0
  9
$DIMSD2
 70
     0
  9
$DIMTOLJ
 70
     0
  9
$DIMTZIN
 70
     1
  9
$DIMALTZ
 70
     0
  9
$DIMALTTZ
 70
     0
  9
$DIMUPT
 70
     0
  9
$DIMDEC
 70
     2
  9
$DIMTDEC
 70
     2
  9
$DIMALTU
 70
     2
  9
$DIMALTTD
 70
     3
  9
$DIMTXSTY
  7
Standard
  9
$DIMAUNIT
 70
     0
  9
$DIMADEC
 70
     0
  9
$DIMALTRND
 40
0.0
  9
$DIMAZIN
 70
     0
  9
$DIMDSEP
 70
    44
  9
$DIMATFIT
 70
     3
  9
$DIMFRAC
 70
     0
  9
$DIMLDRBLK
  1

  9
$DIMLUNIT
 70
     2
  9
$DIMLWD
 70
    -2
  9
$DIMLWE
 70
    -2
  9
$DIMTMOVE
 70
     0
  9
$LUNITS
 70
     2
  9
$LUPREC
 70
     2
  9
$SKETCHINC
 40
1.0
  9
$FILLETRAD
 40
0.0
  9
$AUNITS
 70
     0
  9
$AUPREC
 70
     2
  9
$MENU
  1
.
  9
$ELEVATION
 40
0.0
  9
$PELEVATION
 40
0.0
  9
$THICKNESS
 40
0.0
  9
$LIMCHECK
 70
     0
  9
$CHAMFERA
 40
0.0
  9
$CHAMFERB
 40
0.0
  9
$CHAMFERC
 40
0.0
  9
$CHAMFERD
 40
0.0
  9
$SKPOLY
 70
     0
  9
$TDCREATE
 40
2460406.377041771
  9
$TDUCREATE
 40
2460406.252041771
  9
$TDUPDATE
 40
2460406.377042454
  9
$TDUUPDATE
 40
2460406.252042454
  9
$TDINDWG
 40
0.0000000116
  9
$TDUSRTIMER
 40
0.0000000116
  9
$USRTIMER
 70
     1
  9
$ANGBASE
 50
0.0
  9
$ANGDIR
 70
     0
  9
$PDMODE
 70
     0
  9
$PDSIZE
 40
-1.0
  9
$PLINEWID
 40
0.0
  9
$SPLFRAME
 70
     0
  9
$SPLINETYPE
 70
     6
  9
$SPLINESEGS
 70
     8
  9
$HANDSEED
  5
163
  9
$SURFTAB1
 70
     6
  9
$SURFTAB2
 70
     6
  9
$SURFTYPE
 70
     6
  9
$SURFU
 70
     6
  9
$SURFV
 70
     6
  9
$UCSBASE
  2

  9
$UCSNAME
  2

  9
$UCSORG
 10
0.0
 20
0.0
 30
0.0
  9
$UCSXDIR
 10
1.0
 20
0.0
 30
0.0
  9
$UCSYDIR
 10
0.0
 20
1.0
 30
0.0
  9
$UCSORTHOREF
  2

  9
$UCSORTHOVIEW
 70
     0
  9
$UCSORGTOP
 10
0.0
 20
0.0
 30
0.0
  9
$UCSORGBOTTOM
 10
0.0
 20
0.0
 30
0.0
  9
$UCSORGLEFT
 10
0.0
 20
0.0
 30
0.0
  9
$UCSORGRIGHT
 10
0.0
 20
0.0
 30
0.0
  9
$UCSORGFRONT
 10
0.0
 20
0.0
 30
0.0
  9
$UCSORGBACK
 10
0.0
 20
0.0
 30
0.0
  9
$PUCSBASE
  2

  9
$PUCSNAME
  2

  9
$PUCSORG
 10
0.0
 20
0.0
 30
0.0
  9
$PUCSXDIR
 10
1.0
 20
0.0
 30
0.0
  9
$PUCSYDIR
 10
0.0
 20
1.0
 30
0.0
  9
$PUCSORTHOREF
  2

  9
$PUCSORTHOVIEW
 70
     0
  9
$PUCSORGTOP
 10
0.0
 20
0.0
 30
0.0
  9
$PUCSORGBOTTOM
 10
0.0
 20
0.0
 30
0.0
  9
$PUCSORGLEFT
 10
0.0
 20
0.0
 30
0.0
  9
$PUCSORGRIGHT
 10
0.0
 20
0.0
 30
0.0
  9
$PUCSORGFRONT
 10
0.0
 20
0.0
 30
0.0
  9
$PUCSORGBACK
 10
0.0
 20
0.0
 30
0.0
  9
$USERI1
 70
     0
  9
$USERI2
 70
     0
  9
$USERI3
 70
     0
  9
$USERI4
 70
     0
  9
$USERI5
 70
     0
  9
$USERR1
 40
0.0
  9
$USERR2
 40
0.0
  9
$USERR3
 40
0.0
  9
$USERR4
 40
0.0
  9
$USERR5
 40
0.0
  9
$WORLDVIEW
 70
     1
  9
$SHADEDGE
 70
     3
  9
$SHADEDIF
 70
    70
  9
$TILEMODE
 70
     1
  9
$MAXACTVP
 70
    64
  9
$PINSBASE
 10
0.0
 20
0.0
 30
0.0
  9
$PLIMCHECK
 70
     0
  9
$PEXTMIN
 10
1.0000000000E+20
 20
1.0000000000E+20
 30
1.0000000000E+20
  9
$PEXTMAX
 10
-1.0000000000E+20
 20
-1.0000000000E+20
 30
-1.0000000000E+20
  9
$PLIMMIN
 10
0.0
 20
0.0
  9
$PLIMMAX
 10
420.0
 20
297.0
  9
$UNITMODE
 70
     0
  9
$VISRETAIN
 70
     1
  9
$PLINEGEN
 70
     0
  9
$PSLTSCALE
 70
     1
  9
$TREEDEPTH
 70
  3020
  9
$CMLSTYLE
  2
Standard
  9
$CMLJUST
 70
     0
  9
$CMLSCALE
 40
20.0
  9
$PROXYGRAPHICS
 70
     1
  9
$MEASUREMENT
 70
     1
  9
$CELWEIGHT
370
    -1
  9
$ENDCAPS
280
     0
  9
$JOINSTYLE
280
     0
  9
$LWDISPLAY
290
     1
  9
$INSUNITS
 70
     4
  9
$HYPERLINKBASE
  1

  9
$STYLESHEET
  1

  9
$XEDIT
290
     1
  9
$CEPSNTYPE
380
     0
  9
$PSTYLEMODE
290
     1
  9
$FINGERPRINTGUID
  2
{20d71d98-79a7-4836-ab7f-38d7b57e26de}
  9
$VERSIONGUID
  2
{FAEB1C32-E019-11D5-929B-00C0DF256EC4}
  9
$EXTNAMES
290
     1
  9
$PSVPSCALE
 40
0.0
  9
$OLESTARTUP
290
     0
  0
ENDSEC
  0
SECTION
  2
CLASSES
  0
CLASS
  1
ACDBDICTIONARYWDFLT
  2
AcDbDictionaryWithDefault
  3
ObjectDBX Classes
 90
        0
280
     0
281
     0
  0
CLASS
  1
VISUALSTYLE
  2
AcDbVisualStyle
  3
ObjectDBX Classes
 90
     4095
280
     0
281
     0
  0
CLASS
  1
MATERIAL
  2
AcDbMaterial
  3
ObjectDBX Classes
 90
     1153
280
     0
281
     0
  0
CLASS
  1
SCALE
  2
AcDbScale
  3
ObjectDBX Classes
 90
     1153
280
     0
281
     0
  0
CLASS
  1
TABLESTYLE
  2
AcDbTableStyle
  3
ObjectDBX Classes
 90
     4095
280
     0
281
     0
  0
CLASS
  1
MLEADERSTYLE
  2
AcDbMLeaderStyle
  3
ACDB_MLEADERSTYLE_CLASS
 90
     4095
280
     0
281
     0
  0
CLASS
  1
SUN
  2
AcDbSun
  3
SCENEOE
 90
     1153
280
     0
281
     0
  0
CLASS
  1
ACDBPLACEHOLDER
  2
AcDbPlaceHolder
  3
ObjectDBX Classes
 90
        0
280
     0
281
     0
  0
CLASS
  1
LAYOUT
  2
AcDbLayout
  3
ObjectDBX Classes
 90
        0
280
     0
281
     0
  0
ENDSEC
  0
SECTION
  2
TABLES
  0
TABLE
  2
VPORT
  5
8
330
0
100
AcDbSymbolTable
 70
     1
  0
VPORT
  5
29
330
8
100
AcDbSymbolTableRecord
100
AcDbViewportTableRecord
  2
*Active
 70
     0
 10
0.0
 20
0.0
 11
1.0
 21
1.0
 12
300.0
 22
225.0
 13
0.0
 23
0.0
 14
10.0
 24
10.0
 15
10.0
 25
10.0
 16
0.0
 26
0.0
 36
1.0
 17
0.0
 27
0.0
 37
0.0
 40
450.0
 41
1.3333333333
 42
50.0
 43
0.0
 44
0.0
 50
0.0
 51
0.0
 71
     0
 72
  2000
 73
     1
 74
     3
 75
     0
 76
     0
 77
     0
 78
     0
281
     0
 65
     1
110
0.0
120
0.0
130
0.0
111
1.0
121
0.0
131
0.0
112
0.0
122
1.0
132
0.0
 79
     0
146
0.0
  0
ENDTAB
  0
TABLE
  2
LTYPE
  5
5
330
0
100
AcDbSymbolTable
 70
     6
  0
LTYPE
  5
14
330
5
100
AcDbSymbolTableRecord
100
AcDbLinetypeTableRecord
  2
ByBlock
 70
     0
  3

 72
    65
 73
     0
 40
0.0
  0
LTYPE
  5
15
330
5
100
AcDbSymbolTableRecord
100
AcDbLinetypeTableRecord
  2
ByLayer
 70
     0
  3

 72
    65
 73
     0
 40
0.0
  0
LTYPE
  5
16
330
5
100
AcDbSymbolTableRecord
100
AcDbLinetypeTableRecord
  2
Continuous
 70
     0
  3
Solid line
 72
    65
 73
     0
 40
0.0
  0
LTYPE
  5
5E
330
5
100
AcDbSymbolTableRecord
100
AcDbLinetypeTableRecord
  2
HIDDEN
 70
     0
  3
Hidden __ __ __ __ __ __ __ __ __ __ __ __ __ __
 72
    65
 73
     2
 40
1.905
 49
1.27
 74
     0
 49
-0.635
 74
     0
  0
LTYPE
  5
5F
330
5
100
AcDbSymbolTableRecord
100
AcDbLinetypeTableRecord
  2
PHANTOM
 70
     0
  3
Phantom ______  __  __  ______  __  __  ______
 72
    65
 73
     6
 40
12.7
 49
6.35
 74
     0
 49
-1.27
 74
     0
 49
1.27
 74
     0
 49
-1.27
 74
     0
 49
1.27
 74
     0
 49
-1.27
 74
     0
  0
LTYPE
  5
60
330
5
100
AcDbSymbolTableRecord
100
AcDbLinetypeTableRecord
  2
CENTER
 70
     0
  3
Center ____ _ ____ _ ____ _ ____ _ ____ _ ____
 72
    65
 73
     4
 40
10.16
 49
6.35
 74
     0
 49
-1.27
 74
     0
 49
1.27
 74
     0
 49
-1.27
 74
     0
  0
LTYPE
  5
61
330
5
100
AcDbSymbolTableRecord
100
AcDbLinetypeTableRecord
  2
CENTERX2
 70
     0
  3
Center (2x) ________  __  ________  __  _____
 72
    65
 73
     4
 40
20.32
 49
12.7
 74
     0
 49
-2.54
 74
     0
 49
2.54
 74
     0
 49
-2.54
 74
     0
  0
LTYPE
  5
62
330
5
100
AcDbSymbolTableRecord
100
AcDbLinetypeTableRecord
  2
DOT2
 70
     0
  3
Dot (.5x) ........................................
 72
    65
 73
     2
 40
0.635
 49
0.0
 74
     0
 49
-0.635
 74
     0
  0
ENDTAB
  0
TABLE
  2
LAYER
  5
2
330
0
100
AcDbSymbolTable
 70
     2
  0
LAYER
  5
10
330
2
100
AcDbSymbolTableRecord
100
AcDbLayerTableRecord
  2
0
 70
     0
 62
     7
  6
Continuous
370
    -3
390
F
  0
LAYER
  5
63
330
2
100
AcDbSymbolTableRecord
100
AcDbLayerTableRecord
  2
TABLE_BL1
 70
     0
 62
   179
  6
Continuous
370
    -3
390
F
  0
ENDTAB
  0
TABLE
  2
STYLE
  5
3
330
0
100
AcDbSymbolTable
 70
     1
  0
STYLE
  5
11
330
3
100
AcDbSymbolTableRecord
100
AcDbTextStyleTableRecord
  2
Standard
 70
     0
 40
0.0
 41
1.0
 50
0.0
 71
     0
 42
3.5
  3
txt
  4

  0
ENDTAB
  0
TABLE
  2
VIEW
  5
6
330
0
100
AcDbSymbolTable
 70
     0
  0
ENDTAB
  0
TABLE
  2
UCS
  5
7
330
0
100
AcDbSymbolTable
 70
     0
  0
ENDTAB
  0
TABLE
  2
APPID
  5
9
330
0
100
AcDbSymbolTable
 70
     1
  0
APPID
  5
12
330
9
100
AcDbSymbolTableRecord
100
AcDbRegAppTableRecord
  2
ACAD
 70
     0
  0
ENDTAB
  0
TABLE
  2
DIMSTYLE
  5
A
330
0
100
AcDbSymbolTable
 70
     1
100
AcDbDimStyleTable
  0
DIMSTYLE
105
27
330
A
100
AcDbSymbolTableRecord
100
AcDbDimStyleTableRecord
  2
ISO-25
 70
     0
 41
2.5
 42
0.625
 43
3.75
 44
1.25
 73
     0
 74
     0
 77
     1
 78
     8
140
2.5
141
2.5
143
0.0393700787
147
0.625
171
     3
172
     1
178
     0
271
     2
272
     2
274
     3
278
    44
283
     0
284
     8
340
11
  0
ENDTAB
  0
TABLE
  2
BLOCK_RECORD
  5
1
330
0
100
AcDbSymbolTable
 70
     1
  0
BLOCK_RECORD
  5
1F
330
1
100
AcDbSymbolTableRecord
100
AcDbBlockTableRecord
  2
*Model_Space
340
22
  0
BLOCK_RECORD
  5
1B
330
1
100
AcDbSymbolTableRecord
100
AcDbBlockTableRecord
  2
*Paper_Space
340
1E
  0
BLOCK_RECORD
  5
23
330
1
100
AcDbSymbolTableRecord
100
AcDbBlockTableRecord
  2
*Paper_Space0
340
26
  0
ENDTAB
  0
ENDSEC
  0
SECTION
  2
BLOCKS
  0
BLOCK
  5
20
330
1F
100
AcDbEntity
  8
0
100
AcDbBlockBegin
  2
*Model_Space
 70
     0
 10
0.0
 20
0.0
 30
0.0
  3
*Model_Space
  1

  0
ENDBLK
  5
21
330
1F
100
AcDbEntity
  8
0
100
AcDbBlockEnd
  0
BLOCK
  5
1C
330
1B
100
AcDbEntity
 67
     1
  8
0
100
AcDbBlockBegin
  2
*Paper_Space
 70
     0
 10
0.0
 20
0.0
 30
0.0
  3
*Paper_Space
  1

  0
ENDBLK
  5
1D
330
1B
100
AcDbEntity
 67
     1
  8
0
100
AcDbBlockEnd
  0
BLOCK
  5
24
330
23
100
AcDbEntity
  8
0
100
AcDbBlockBegin
  2
*Paper_Space0
 70
     0
 10
0.0
 20
0.0
 30
0.0
  3
*Paper_Space0
  1

  0
ENDBLK
  5
25
330
23
100
AcDbEntity
  8
0
100
AcDbBlockEnd
  0
ENDSEC
  0
SECTION
  2
ENTITIES
  0
CIRCLE
  5
64
330
1F
100
AcDbEntity
  8
0
  6
Continuous
 62
     7
370
    25
100
AcDbCircle
 10
301.7050415094
 20
309.4721886792
 30
0.0
 40
8.900000000000034
  0
LWPOLYLINE
  5
65
330
1F
100
AcDbEntity
  8
0
  6
Continuous
 62
     7
370
    25
100
AcDbPolyline
 90
        3
 70
   128
 43
0.0
 10
309.6346208829
 20
313.7291560223
 10
308.7464431797
 20
315.077423957
 10
307.6548400932
 20
316.2249582454
  0
ARC
  5
66
330
1F
100
AcDbEntity
  8
0
  6
Continuous
 62
     7
370
    25
100
AcDbCircle
 10
301.7050415094
 20
309.4721886792
 30
0.0
 40
9.00000000000004
100
AcDbArc
 50
79.9623703882
 51
99.9709200089
  0
ARC
  5
67
330
1F
100
AcDbEntity
  8
0
  6
Continuous
 62
     7
370
    25
100
AcDbCircle
 10
301.7050415094
 20
309.4721886792
 30
0.0
 40
9.000000000000068
100
AcDbArc
 50
131.5662655105
 51
151.1236196133
  0
LINE
  5
68
330
1F
100
AcDbEntity
  8
0
  6
Continuous
 62
     7
370
    25
100
AcDbLine
 10
292.7141967885
 20
309.0663423982
 30
0.0
 11
292.7362281233
 21
308.7235990427
 31
0.0
  0
LWPOLYLINE
  5
69
330
1F
100
AcDbEntity
  8
0
  6
Continuous
 62
     7
370
    25
100
AcDbPolyline
 90
        3
 70
   128
 43
0.0
 10
292.7362281233
 20
308.7235990427
 10
293.0878587514
 20
306.8752363666
 10
293.4029384343
 20
305.9972664456
  0
LWPOLYLINE
  5
6A
330
1F
100
AcDbEntity
  8
0
  6
Continuous
 62
     7
370
    25
100
AcDbPolyline
 90
        3
 70
   128
 43
0.0
 10
296.4354314515
 20
302.1762165139
 10
297.8689324586
 20
301.3306736268
 10
299.3128014441
 20
300.7959459746
  0
ARC
  5
6B
330
1F
100
AcDbEntity
  8
0
  6
Continuous
 62
     7
370
    25
100
AcDbCircle
 10
301.7050415094
 20
309.4721886792
 30
0.0
 40
9.00000000000009
100
AcDbArc
 50
285.9496577617
 51
305.5612274071
  0
ARC
  5
6C
330
1F
100
AcDbEntity
  8
0
  6
Continuous
 62
     7
370
    25
100
AcDbCircle
 10
301.7050415094
 20
309.4721886792
 30
0.0
 40
9.00000000000004
100
AcDbArc
 50
337.1639837857
 51
356.8199880674
  0
CIRCLE
  5
6D
330
1F
100
AcDbEntity
  8
0
  6
Continuous
 62
     7
370
    25
100
AcDbCircle
 10
301.7050415094
 20
309.4721886792
 30
0.0
 40
8.099999999999966
  0
CIRCLE
  5
6E
330
1F
100
AcDbEntity
  8
0
  6
Continuous
 62
     7
370
    25
100
AcDbCircle
 10
301.7050415094
 20
309.4721886792
 30
0.0
 40
55.99540163538481
  0
CIRCLE
  5
6F
330
1F
100
AcDbEntity
  8
0
  6
Continuous
 62
     7
370
    25
100
AcDbCircle
 10
301.7050415094
 20
309.4721886792
 30
0.0
 40
56.58542857502064
  0
SPLINE
  5
70
330
1F
100
AcDbEntity
  8
0
  6
Continuous
 62
     7
370
    25
100
AcDbSpline
210
0.0
220
0.0
230
1.0
 70
     8
 71
     3
 72
    17
 73
    13
 74
     0
 42
0.00000001
 43
0.00000001
 40
0.0
 40
0.0
 40
0.0
 40
0.0
 40
0.1073415831264229
 40
0.2147340135529303
 40
0.3221186568153148
 40
0.4294882791417533
 40
0.5368445105544998
 40
0.644194315723716
 40
0.7515471508446134
 40
0.8589113006666688
 40
0.9662906002105656
 40
1.0
 40
1.0
 40
1.0
 40
1.0
 10
281.3789085502437
 20
262.6550089379865
 30
0.0
 10
281.2614573976747
 20
262.4620465868255
 30
0.0
 10
281.0264994563722
 20
262.0760304789711
 30
0.0
 10
280.4562075067
 20
261.6862275872676
 30
0.0
 10
279.8012688083127
 20
261.4964566498513
 30
0.0
 10
279.1171867376324
 20
261.5370526288007
 30
0.0
 10
278.4860159792533
 20
261.8010285558216
 30
0.0
 10
277.9776975482746
 20
262.2590961029355
 30
0.0
 10
277.6492726742016
 20
262.8599192971882
 30
0.0
 10
277.5397673646019
 20
263.5341212184216
 30
0.0
 10
277.6276386592365
 20
264.0571157047365
 30
0.0
 10
277.746608413634
 20
264.3262430570634
 30
0.0
 10
277.775033078634
 20
264.3905438944566
 30
0.0
  0
ARC
  5
71
330
1F
100
AcDbEntity
  8
0
  6
Continuous
 62
     7
370
    25
100
AcDbCircle
 10
301.7050415094
 20
309.4721886792
 30
0.0
 40
46.99999999999999
100
AcDbArc
 50
246.7245689767
 51
293.2754310233
  0
SPLINE
  5
72
330
1F
100
AcDbEntity
  8
0
  6
Continuous
 62
     7
370
    25
100
AcDbSpline
210
0.0
220
0.0
230
1.0
 70
     8
 71
     3
 72
    17
 73
    13
 74
     0
 42
0.00000001
 43
0.00000001
 40
0.0
 40
0.0
 40
0.0
 40
0.0
 40
0.1073415831264227
 40
0.2147340135529305
 40
0.3221186568153153
 40
0.4294882791417488
 40
0.5368445105544976
 40
0.6441943157237116
 40
0.7515471508446097
 40
0.8589113006666693
 40
0.966290600210566
 40
1.0
 40
1.0
 40
1.0
 40
1.0
 10
325.6350499402347
 20
264.3905438944569
 30
0.0
 10
325.7126843854601
 20
264.1784068276348
 30
0.0
 10
325.8679900510526
 20
263.7540322054682
 30
0.0
 10
325.8171790090407
 20
263.0651218773043
 30
0.0
 10
325.5572003030831
 20
262.4347499396501
 30
0.0
 10
325.0989428939753
 20
261.9252242190718
 30
0.0
 10
324.4990296725359
 20
261.5963413477916
 30
0.0
 10
323.8239666852932
 20
261.4845224395217
 30
0.0
 10
323.1494546369682
 20
261.6023566676824
 30
0.0
 10
322.5540669056227
 20
261.9370999914225
 30
0.0
 10
322.1999602071454
 20
262.3318822646189
 30
0.0
 10
322.0637243988994
 20
262.5926947236453
 30
0.0
 10
322.031174468625
 20
262.6550089379866
 30
0.0
  0
ARC
  5
73
330
1F
100
AcDbEntity
  8
0
  6
Continuous
 62
     7
370
    25
100
AcDbCircle
 10
301.7050415094
 20
309.4721886792
 30
0.0
 40
46.99999999999999
100
AcDbArc
 50
298.1531404052
 51
344.7040024519
  0
SPLINE
  5
74
330
1F
100
AcDbEntity
  8
0
  6
Continuous
 62
     7
370
    25
100
AcDbSpline
210
0.0
220
0.0
230
1.0
 70
     8
 71
     3
 72
    17
 73
    13
 74
     0
 42
0.00000001
 43
0.00000001
 40
0.0
 40
0.0
 40
0.0
 40
0.0
 40
0.1073415831264243
 40
0.2147340135529323
 40
0.322118656815318
 40
0.4294882791417508
 40
0.5368445105545022
 40
0.644194315723715
 40
0.7515471508446128
 40
0.8589113006666692
 40
0.9662906002105652
 40
0.9999999999999999
 40
0.9999999999999999
 40
0.9999999999999999
 40
0.9999999999999999
 10
351.8714068986199
 20
300.073476871837
 30
0.0
 10
352.0856666209307
 20
300.0019086274783
 30
0.0
 10
352.5142875595688
 20
299.8587382371556
 30
0.0
 10
353.0212191762086
 20
299.3894840008484
 30
0.0
 10
353.3519697308659
 20
298.7931939892542
 30
0.0
 10
353.4646141591364
 20
298.1172298291742
 30
0.0
 10
353.34770536638
 20
297.4431436696547
 30
0.0
 10
353.0142340210426
 20
296.8456402246184
 30
0.0
 10
352.5015561283927
 20
296.391753909502
 30
0.0
 10
351.8686250807009
 20
296.134970085453
 30
0.0
 10
351.3391899555253
 20
296.1042610417232
 30
0.0
 10
351.0503369269492
 20
296.1603615061977
 30
0.0
 10
350.9813231627946
 20
296.1737652231097
 30
0.0
  0
ARC
  5
75
330
1F
100
AcDbEntity
  8
0
  6
Continuous
 62
     7
370
    25
100
AcDbCircle
 10
301.7050415094
 20
309.4721886792
 30
0.0
 40
46.99999999999999
100
AcDbArc
 50
349.5817118338
 51
36.1325738805
  0
SPLINE
  5
76
330
1F
100
AcDbEntity
  8
0
  6
Continuous
 62
     7
370
    25
100
AcDbSpline
210
0.0
220
0.0
230
1.0
 70
     8
 71
     3
 72
    17
 73
    13
 74
     0
 42
0.00000001
 43
0.00000001
 40
0.0
 40
0.0
 40
0.0
 40
0.0
 40
0.1073415831264236
 40
0.2147340135529321
 40
0.3221186568153129
 40
0.4294882791417476
 40
0.5368445105544984
 40
0.6441943157237136
 40
0.751547150844611
 40
0.8589113006666684
 40
0.9662906002105651
 40
1.0
 40
1.0
 40
1.0
 40
1.0
 10
340.3314675115859
 20
342.8338315389768
 30
0.0
 10
340.5210105699803
 20
342.9567244648098
 30
0.0
 10
340.9001864725959
 20
343.2025685303877
 30
0.0
 10
341.583130901037
 20
343.3063283969186
 30
0.0
 10
342.2555488025706
 20
343.1931388522142
 30
0.0
 10
342.8542715162039
 20
342.8597510523288
 30
0.0
 10
343.308401857581
 20
342.34806223154
 30
0.0
 10
343.5676328787636
 20
341.7148065306986
 30
0.0
 10
343.6028460516774
 20
341.0309853251813
 30
0.0
 10
343.4089816759917
 20
340.3760378102876
 30
0.0
 10
343.1028935718834
 20
339.9429619859104
 30
0.0
 10
342.8789355450229
 20
339.7521056618428
 30
0.0
 10
342.8254267190208
 20
339.7065056091047
 30
0.0
  0
ARC
  5
77
330
1F
100
AcDbEntity
  8
0
  6
Continuous
 62
     7
370
    25
100
AcDbCircle
 10
301.7050415094
 20
309.4721886792
 30
0.0
 40
47.00000000000001
100
AcDbArc
 50
41.0102832624
 51
87.5611453091
  0
SPLINE
  5
78
330
1F
100
AcDbEntity
  8
0
  6
Continuous
 62
     7
370
    25
100
AcDbSpline
210
0.0
220
0.0
230
1.0
 70
     8
 71
     3
 72
    17
 73
    13
 74
     0
 42
0.00000001
 43
0.00000001
 40
0.0
 40
0.0
 40
0.0
 40
0.0
 40
0.1073415831264219
 40
0.2147340135529706
 40
0.3221186568153527
 40
0.4294882791417799
 40
0.5368445105545244
 40
0.6441943157237345
 40
0.7515471508446245
 40
0.8589113006666796
 40
0.966290600210571
 40
1.0
 40
1.0
 40
1.0
 40
1.0
 10
299.7050415094328
 20
360.472188679245
 30
0.0
 10
299.727138114966
 20
360.6970018955585
 30
0.0
 10
299.7713417931105
 20
361.1467348213521
 30
0.0
 10
300.1160279492103
 20
361.7453754949073
 30
0.0
 10
300.6237688029395
 20
362.2005204529013
 30
0.0
 10
301.2577193868525
 20
362.4607568263959
 30
0.0
 10
301.9409194527353
 20
362.4967774629416
 30
0.0
 10
302.5976465941382
 20
362.3046239650909
 30
0.0
 10
303.1542345951938
 20
361.9057991843378
 30
0.0
 10
303.5454207205182
 20
361.3458768158087
 30
0.0
 10
303.6931702229301
 20
360.8365491396771
 30
0.0
 10
303.7027521599225
 20
360.5424547318498
 30
0.0
 10
303.7050415094335
 20
360.472188679245
 30
0.0
  0
ARC
  5
79
330
1F
100
AcDbEntity
  8
0
  6
Continuous
 62
     7
370
    25
100
AcDbCircle
 10
301.7050415094
 20
309.4721886792
 30
0.0
 40
46.99999999999999
100
AcDbArc
 50
92.438854691
 51
138.9897167376
  0
SPLINE
  5
7A
330
1F
100
AcDbEntity
  8
0
  6
Continuous
 62
     7
370
    25
100
AcDbSpline
210
0.0
220
0.0
230
1.0
 70
     8
 71
     3
 72
    17
 73
    13
 74
     0
 42
0.00000001
 43
0.00000001
 40
0.0
 40
0.0
 40
0.0
 40
0.0
 40
0.1073415831264233
 40
0.2147340135529306
 40
0.3221186568153138
 40
0.4294882791417479
 40
0.5368445105544973
 40
0.6441943157237089
 40
0.7515471508446062
 40
0.8589113006666629
 40
0.9662906002105627
 40
1.0
 40
1.0
 40
1.0
 40
1.0
 10
260.5846562998471
 20
339.7065056091043
 30
0.0
 10
260.422667257864
 20
339.8639501786604
 30
0.0
 10
260.0986124403041
 20
340.1789138986671
 30
0.0
 10
259.845484618202
 20
340.8216467420158
 30
0.0
 10
259.8062092052432
 20
341.5023927660732
 30
0.0
 10
259.9980099395138
 20
342.1602900158518
 30
0.0
 10
260.3958161455511
 20
342.7168958357259
 30
0.0
 10
260.9555104749056
 20
343.1105400439646
 30
0.0
 10
261.6143511869819
 20
343.2970348824256
 30
0.0
 10
262.2960166822045
 20
343.2537706240985
 30
0.0
 10
262.7863454022799
 20
343.0517252247307
 30
0.0
 10
263.0222519091339
 20
342.8758518206703
 30
0.0
 10
263.0786155072821
 20
342.8338315389764
 30
0.0
  0
ARC
  5
7B
330
1F
100
AcDbEntity
  8
0
  6
Continuous
 62
     7
370
    25
100
AcDbCircle
 10
301.7050415094
 20
309.4721886792
 30
0.0
 40
47.00000000000002
100
AcDbArc
 50
143.8674261195
 51
190.4182881662
  0
SPLINE
  5
7C
330
1F
100
AcDbEntity
  8
0
  6
Continuous
 62
     7
370
    25
100
AcDbSpline
210
0.0
220
0.0
230
1.0
 70
     8
 71
     3
 72
    17
 73
    13
 74
     0
 42
0.00000001
 43
0.00000001
 40
0.0
 40
0.0
 40
0.0
 40
0.0
 40
0.107341583126421
 40
0.214734013552931
 40
0.3221186568153159
 40
0.4294882791417507
 40
0.536844510554499
 40
0.644194315723714
 40
0.7515471508446122
 40
0.8589113006666687
 40
0.9662906002105621
 40
1.0
 40
1.0
 40
1.0
 40
1.0
 10
252.4287598560737
 20
296.1737652231092
 30
0.0
 10
252.2046662191618
 20
296.1452821737482
 30
0.0
 10
251.7563727930336
 20
296.0883025827141
 30
0.0
 10
251.09604140564
 20
296.2911366554536
 30
0.0
 10
250.5393249130233
 20
296.6848681047713
 30
0.0
 10
250.1445459327241
 20
297.2450161830924
 30
0.0
 10
249.9574020920019
 20
297.9030716512402
 30
0.0
 10
249.9986023636204
 20
298.5860914478861
 30
0.0
 10
250.2635752926229
 20
299.2174714883986
 30
0.0
 10
250.7224121363987
 20
299.7234442092238
 30
0.0
 10
251.1860925470378
 20
299.9808253933188
 30
0.0
 10
251.4706812124766
 20
300.0556092534464
 30
0.0
 10
251.5386761202485
 20
300.0734768718365
 30
0.0
  0
ARC
  5
7D
330
1F
100
AcDbEntity
  8
0
  6
Continuous
 62
     7
370
    25
100
AcDbCircle
 10
301.7050415094
 20
309.4721886792
 30
0.0
 40
47.00000000000001
100
AcDbArc
 50
195.2959975481
 51
241.8468595948
  0
LINE
  5
7E
330
1F
100
AcDbEntity
  8
0
  6
Continuous
 62
     7
370
    25
100
AcDbLine
 10
256.3699765965
 20
297.0733222253
 30
0.0
 11
252.4287598561
 21
296.1737652231
 31
0.0
  0
LINE
  5
7F
330
1F
100
AcDbEntity
  8
0
  6
Continuous
 62
     7
370
    25
100
AcDbLine
 10
283.1329150103
 20
266.297240882
 30
0.0
 11
281.3789085502
 21
262.655008938
 31
0.0
  0
LINE
  5
80
330
1F
100
AcDbEntity
  8
0
  6
Continuous
 62
     7
370
    25
100
AcDbLine
 10
263.745266729
 20
337.1860028992
 30
0.0
 11
260.5846562998
 21
339.7065056091
 31
0.0
  0
LINE
  5
81
330
1F
100
AcDbEntity
  8
0
  6
Continuous
 62
     7
370
    25
100
AcDbLine
 10
337.1708570824
 20
340.3133288291
 30
0.0
 11
340.3314675116
 21
342.833831539
 31
0.0
  0
LINE
  5
82
330
1F
100
AcDbEntity
  8
0
  6
Continuous
 62
     7
370
    25
100
AcDbLine
 10
299.7050415094
 20
356.4296162067
 30
0.0
 11
299.7050415094
 21
360.4721886792
 31
0.0
  0
LINE
  5
83
330
1F
100
AcDbEntity
  8
0
  6
Continuous
 62
     7
370
    25
100
AcDbLine
 10
347.9301901582
 20
300.973033874
 30
0.0
 11
351.8714068986
 21
300.0734768718
 31
0.0
  0
LINE
  5
84
330
1F
100
AcDbEntity
  8
0
  6
Continuous
 62
     7
370
    25
100
AcDbLine
 10
323.8810434802
 20
268.0327758384
 30
0.0
 11
325.6350499402
 21
264.3905438945
 31
0.0
  0
LINE
  5
85
330
1F
100
AcDbEntity
  8
0
  6
Continuous
 62
     7
370
    25
100
AcDbLine
 10
350.9813231628
 20
296.1737652231
 30
0.0
 11
347.0401064223
 21
297.0733222253
 31
0.0
  0
LINE
  5
86
330
1F
100
AcDbEntity
  8
0
  6
Continuous
 62
     7
370
    25
100
AcDbLine
 10
277.7750330786
 20
264.3905438945
 30
0.0
 11
279.5290395387
 21
268.0327758384
 31
0.0
  0
LINE
  5
87
330
1F
100
AcDbEntity
  8
0
  6
Continuous
 62
     7
370
    25
100
AcDbLine
 10
322.0311744686
 20
262.655008938
 30
0.0
 11
320.2771680086
 21
266.297240882
 31
0.0
  0
LINE
  5
88
330
1F
100
AcDbEntity
  8
0
  6
Continuous
 62
     7
370
    25
100
AcDbLine
 10
263.0786155073
 20
342.833831539
 30
0.0
 11
266.2392259364
 21
340.3133288291
 31
0.0
  0
LINE
  5
89
330
1F
100
AcDbEntity
  8
0
  6
Continuous
 62
     7
370
    25
100
AcDbLine
 10
303.7050415094
 20
360.4721886792
 30
0.0
 11
303.7050415094
 21
356.4296162067
 31
0.0
  0
LINE
  5
8A
330
1F
100
AcDbEntity
  8
0
  6
Continuous
 62
     7
370
    25
100
AcDbLine
 10
342.825426719
 20
339.7065056091
 30
0.0
 11
339.6648162899
 21
337.1860028992
 31
0.0
  0
LINE
  5
8B
330
1F
100
AcDbEntity
  8
0
  6
Continuous
 62
     7
370
    25
100
AcDbLine
 10
251.5386761202
 20
300.0734768718
 30
0.0
 11
255.4798928607
 21
300.973033874
 31
0.0
  0
ARC
  5
8C
330
1F
100
AcDbEntity
  8
0
  6
Continuous
 62
     7
370
    25
100
AcDbCircle
 10
301.7050415094
 20
309.4721886792
 30
0.0
 40
32.28988981635705
100
AcDbArc
 50
93.5511101712
 51
137.8774612573
  0
SPLINE
  5
8D
330
1F
100
AcDbEntity
  8
0
  6
Continuous
 62
     7
370
    25
100
AcDbSpline
210
0.0
220
0.0
230
1.0
 70
    24
 71
     3
 72
    14
 73
    10
 74
     0
 42
0.00000001
 43
0.00000001
 40
0.0
 40
0.0
 40
0.0
 40
0.0
 40
0.1599365945527957
 40
0.3204782349631293
 40
0.4327831140154433
 40
0.5446248701610652
 40
0.6577837919875155
 40
0.7712520390670947
 40
1.0
 40
1.0
 40
1.0
 40
1.0
 10
299.7050415094337
 20
341.7000800833142
 30
0.0
 10
299.7050415094337
 20
342.4011362663804
 30
0.0
 10
299.7050415094337
 20
343.8059007531276
 30
0.0
 10
299.7050415094337
 20
345.4172840225437
 30
0.0
 10
299.7050415094337
 20
346.9766100880219
 30
0.0
 10
299.7050415094336
 20
348.5675082065564
 30
0.0
 10
299.7050415094336
 20
350.4066691317611
 30
0.0
 10
299.7050415094336
 20
353.0290875346015
 30
0.0
 10
299.7050415094336
 20
355.067247003639
 30
0.0
 10
299.7050415094336
 20
356.4296162067405
 30
0.0
  0
SPLINE
  5
8E
330
1F
100
AcDbEntity
  8
0
  6
Continuous
 62
     7
370
    25
100
AcDbSpline
210
0.0
220
0.0
230
1.0
 70
    24
 71
     3
 72
    13
 73
     9
 74
     0
 42
0.00000001
 43
0.00000001
 40
0.0
 40
0.0
 40
0.0
 40
0.0
 40
0.1649272304777083
 40
0.3291782252303167
 40
0.5219202432989507
 40
0.6820453210983549
 40
0.8413177176945209
 40
1.0
 40
1.0
 40
1.0
 40
1.0
 10
266.2392259364447
 20
340.3133288290951
 30
0.0
 10
267.00475294759
 20
339.702841409236
 30
0.0
 10
268.5326681509484
 20
338.4843696940888
 30
0.0
 10
270.9181272134983
 20
336.5820295714369
 30
0.0
 10
273.0935964051875
 20
334.8471507827313
 30
0.0
 10
274.7286792540089
 20
333.5432157221782
 30
0.0
 10
276.1219276530659
 20
332.4321371998273
 30
0.0
 10
277.2114772746895
 20
331.5632503707154
 30
0.0
 10
277.7552409998895
 20
331.1296132700289
 30
0.0
  0
ARC
  5
8F
330
1F
100
AcDbEntity
  8
0
  6
Continuous
 62
     7
370
    25
100
AcDbCircle
 10
301.7050415094
 20
309.4721886792
 30
0.0
 40
32.28988981635703
100
AcDbArc
 50
42.1225387427
 51
86.4488898288
  0
SPLINE
  5
90
330
1F
100
AcDbEntity
  8
0
  6
Continuous
 62
     7
370
    25
100
AcDbSpline
210
0.0
220
0.0
230
1.0
 70
    24
 71
     3
 72
    14
 73
    10
 74
     0
 42
0.00000001
 43
0.00000001
 40
0.0
 40
0.0
 40
0.0
 40
0.0
 40
0.1599365945527581
 40
0.3204782349630495
 40
0.4327831140153781
 40
0.5446248701610146
 40
0.6577837919874764
 40
0.7712520390670683
 40
1.0
 40
1.0
 40
1.0
 40
1.0
 10
325.6548420189785
 20
331.1296132700292
 30
0.0
 10
326.2029498138785
 20
331.5667146507009
 30
0.0
 10
327.3012389150704
 20
332.4425709822011
 30
0.0
 10
328.5610690854227
 20
333.4472520175682
 30
0.0
 10
329.7801992948462
 20
334.4194759171661
 30
0.0
 10
331.0240135293156
 20
335.4113846698686
 30
0.0
 10
332.4619274419657
 20
336.5580827507108
 30
0.0
 10
334.5122167095098
 20
338.1931338810885
 30
0.0
 10
336.1057139486936
 20
339.4639055245952
 30
0.0
 10
337.1708570824233
 20
340.3133288290954
 30
0.0
  0
SPLINE
  5
91
330
1F
100
AcDbEntity
  8
0
  6
Continuous
 62
     7
370
    25
100
AcDbSpline
210
0.0
220
0.0
230
1.0
 70
    24
 71
     3
 72
    13
 73
     9
 74
     0
 42
0.00000001
 43
0.00000001
 40
0.0
 40
0.0
 40
0.0
 40
0.0
 40
0.1649272304776914
 40
0.329178225230281
 40
0.5219202432988941
 40
0.6820453210982798
 40
0.8413177176944868
 40
0.9999999999999999
 40
0.9999999999999999
 40
0.9999999999999999
 40
0.9999999999999999
 10
303.7050415094336
 20
356.4296162067406
 30
0.0
 10
303.7050415094336
 20
355.4504704083023
 30
0.0
 10
303.7050415094336
 20
353.4961935115276
 30
0.0
 10
303.7050415094336
 20
350.4450768501471
 30
0.0
 10
303.7050415094337
 20
347.6625473147263
 30
0.0
 10
303.7050415094337
 20
345.571197854533
 30
0.0
 10
303.7050415094337
 20
343.7891662655024
 30
0.0
 10
303.7050415094337
 20
342.3955799926853
 30
0.0
 10
303.7050415094337
 20
341.7000800833142
 30
0.0
  0
ARC
  5
92
330
1F
100
AcDbEntity
  8
0
  6
Continuous
 62
     7
370
    25
100
AcDbCircle
 10
301.7050415094
 20
309.4721886792
 30
0.0
 40
32.289889816357
100
AcDbArc
 50
350.6939673141
 51
35.0203184002
  0
SPLINE
  5
93
330
1F
100
AcDbEntity
  8
0
  6
Continuous
 62
     7
370
    25
100
AcDbSpline
210
0.0
220
0.0
230
1.0
 70
    24
 71
     3
 72
    14
 73
    10
 74
     0
 42
0.00000001
 43
0.00000001
 40
0.0
 40
0.0
 40
0.0
 40
0.0
 40
0.159936594552788
 40
0.3204782349631139
 40
0.4327831140154772
 40
0.5446248701611395
 40
0.6577837919875504
 40
0.7712520390671033
 40
1.0
 40
1.0
 40
1.0
 40
1.0
 10
333.5699542579385
 20
304.2506640089327
 30
0.0
 10
334.2534334988173
 20
304.094664332321
 30
0.0
 10
335.6229776069889
 20
303.7820748267413
 30
0.0
 10
337.1939601335661
 20
303.4235083166692
 30
0.0
 10
338.7141906389929
 20
303.0765256242367
 30
0.0
 10
340.2652016201891
 20
302.7225174890712
 30
0.0
 10
342.0582509411662
 20
302.3132656822985
 30
0.0
 10
344.6149198395146
 20
301.7297226900743
 30
0.0
 10
346.6019783953568
 20
301.2761895414721
 30
0.0
 10
347.9301901581574
 20
300.9730338740048
 30
0.0
  0
SPLINE
  5
94
330
1F
100
AcDbEntity
  8
0
  6
Continuous
 62
     7
370
    25
100
AcDbSpline
210
0.0
220
0.0
230
1.0
 70
    24
 71
     3
 72
    13
 73
     9
 74
     0
 42
0.00000001
 43
0.00000001
 40
0.0
 40
0.0
 40
0.0
 40
0.0
 40
0.1649272304776919
 40
0.3291782252302948
 40
0.5219202432989081
 40
0.6820453210982839
 40
0.8413177176944887
 40
1.0
 40
1.0
 40
1.0
 40
1.0
 10
339.6648162898583
 20
337.1860028992234
 30
0.0
 10
338.899289278713
 20
336.5755154793642
 30
0.0
 10
337.3713740753544
 20
335.357043764217
 30
0.0
 10
334.9859150128048
 20
333.4547036415652
 30
0.0
 10
332.8104458211153
 20
331.7198248528596
 30
0.0
 10
331.1753629722938
 20
330.4158897923061
 30
0.0
 10
329.7821145732372
 20
329.3048112699555
 30
0.0
 10
328.6925649516135
 20
328.4359244408436
 30
0.0
 10
328.1488012264135
 20
328.0022873401571
 30
0.0
  0
ARC
  5
95
330
1F
100
AcDbEntity
  8
0
  6
Continuous
 62
     7
370
    25
100
AcDbCircle
 10
301.7050415094
 20
309.4721886792
 30
0.0
 40
32.28988981635705
100
AcDbArc
 50
144.9796815998
 51
189.3060326859
  0
SPLINE
  5
96
330
1F
100
AcDbEntity
  8
0
  6
Continuous
 62
     7
370
    25
100
AcDbSpline
210
0.0
220
0.0
230
1.0
 70
    24
 71
     3
 72
    14
 73
    10
 74
     0
 42
0.00000001
 43
0.00000001
 40
0.0
 40
0.0
 40
0.0
 40
0.0
 40
0.15993659455276
 40
0.3204782349630533
 40
0.4327831140153802
 40
0.5446248701610152
 40
0.657783791987477
 40
0.7712520390670679
 40
1.0
 40
1.0
 40
1.0
 40
1.0
 10
275.2612817924546
 20
328.0022873401568
 30
0.0
 10
274.7131739975546
 20
328.4393887208286
 30
0.0
 10
273.6148848963626
 20
329.3152450523287
 30
0.0
 10
272.3550547260105
 20
330.3199260876957
 30
0.0
 10
271.1359245165868
 20
331.2921499872937
 30
0.0
 10
269.8921102821175
 20
332.2840587399962
 30
0.0
 10
268.4541963694674
 20
333.4307568208385
 30
0.0
 10
266.4039071019233
 20
335.065807951216
 30
0.0
 10
264.8104098627394
 20
336.3365795947228
 30
0.0
 10
263.7452667290097
 20
337.186002899223
 30
0.0
  0
SPLINE
  5
97
330
1F
100
AcDbEntity
  8
0
  6
Continuous
 62
     7
370
    25
100
AcDbSpline
210
0.0
220
0.0
230
1.0
 70
    24
 71
     3
 72
    13
 73
     9
 74
     0
 42
0.00000001
 43
0.00000001
 40
0.0
 40
0.0
 40
0.0
 40
0.0
 40
0.1649272304776768
 40
0.3291782252302421
 40
0.5219202432989207
 40
0.6820453210982945
 40
0.841317717694494
 40
0.9999999999999999
 40
0.9999999999999999
 40
0.9999999999999999
 40
0.9999999999999999
 10
255.4798928607109
 20
300.9730338740043
 30
0.0
 10
256.4344894297039
 20
301.1909143115522
 30
0.0
 10
258.3397685245016
 20
301.6257818318317
 30
0.0
 10
261.3143873210055
 20
302.3047191609321
 30
0.0
 10
264.0271530315558
 20
302.9238902319145
 30
0.0
 10
266.0660679944257
 20
303.389259267026
 30
0.0
 10
267.803420330961
 20
303.7857986005566
 30
0.0
 10
269.162066486364
 20
304.0959007195326
 30
0.0
 10
269.8401287609298
 20
304.2506640089324
 30
0.0
  0
ARC
  5
98
330
1F
100
AcDbEntity
  8
0
  6
Continuous
 62
     7
370
    25
100
AcDbCircle
 10
301.7050415094
 20
309.4721886792
 30
0.0
 40
32.28988981635705
100
AcDbArc
 50
299.2653958855
 51
343.5917469716
  0
SPLINE
  5
99
330
1F
100
AcDbEntity
  8
0
  6
Continuous
 62
     7
370
    25
100
AcDbSpline
210
0.0
220
0.0
230
1.0
 70
    24
 71
     3
 72
    14
 73
    10
 74
     0
 42
0.00000001
 43
0.00000001
 40
0.0
 40
0.0
 40
0.0
 40
0.0
 40
0.1599365945527932
 40
0.3204782349631243
 40
0.432783114015436
 40
0.5446248701610558
 40
0.6577837919875041
 40
0.7712520390670818
 40
1.0
 40
1.0
 40
1.0
 40
1.0
 10
317.4901372715113
 20
281.3036293242739
 30
0.0
 10
317.7943141495515
 20
280.6719995286807
 30
0.0
 10
318.4038186176409
 20
279.4063504593866
 30
0.0
 10
319.1029716157267
 20
277.9545442993839
 30
0.0
 10
319.7795378395199
 20
276.5496400594792
 30
0.0
 10
320.4698026637448
 20
275.1162903826751
 30
0.0
 10
321.2677846828115
 20
273.459263646003
 30
0.0
 10
322.4056093849666
 20
271.0965463064294
 30
0.0
 10
323.2899336363104
 20
269.2602280770062
 30
0.0
 10
323.8810434802107
 20
268.0327758384227
 30
0.0
  0
SPLINE
  5
9A
330
1F
100
AcDbEntity
  8
0
  6
Continuous
 62
     7
370
    25
100
AcDbSpline
210
0.0
220
0.0
230
1.0
 70
    24
 71
     3
 72
    13
 73
     9
 74
     0
 42
0.00000001
 43
0.00000001
 40
0.0
 40
0.0
 40
0.0
 40
0.0
 40
0.1649272304776917
 40
0.3291782252302836
 40
0.5219202432988929
 40
0.6820453210982786
 40
0.8413177176944863
 40
1.0
 40
1.0
 40
1.0
 40
1.0
 10
347.0401064223321
 20
297.0733222252774
 30
0.0
 10
346.0855098533391
 20
297.2912026628253
 30
0.0
 10
344.1802307585413
 20
297.7260701831049
 30
0.0
 10
341.2056119620386
 20
298.4050075122049
 30
0.0
 10
338.4928462514865
 20
299.0241785831876
 30
0.0
 10
336.4539312886176
 20
299.489547618299
 30
0.0
 10
334.7165789520819
 20
299.8860869518297
 30
0.0
 10
333.3579327966791
 20
300.1961890708056
 30
0.0
 10
332.6798705221133
 20
300.3509523602054
 30
0.0
  0
ARC
  5
9B
330
1F
100
AcDbEntity
  8
0
  6
Continuous
 62
     7
370
    25
100
AcDbCircle
 10
301.7050415094
 20
309.4721886792
 30
0.0
 40
32.28988981635704
100
AcDbArc
 50
196.4082530284
 51
240.7346041145
  0
SPLINE
  5
9C
330
1F
100
AcDbEntity
  8
0
  6
Continuous
 62
     7
370
    25
100
AcDbSpline
210
0.0
220
0.0
230
1.0
 70
    24
 71
     3
 72
    14
 73
    10
 74
     0
 42
0.00000001
 43
0.00000001
 40
0.0
 40
0.0
 40
0.0
 40
0.0
 40
0.1599365945527895
 40
0.3204782349631166
 40
0.4327831140154246
 40
0.5446248701610407
 40
0.6577837919875199
 40
0.7712520390671158
 40
1.0
 40
1.0
 40
1.0
 40
1.0
 10
270.730212496755
 20
300.3509523602052
 30
0.0
 10
270.0467332558761
 20
300.1949526835934
 30
0.0
 10
268.6771891477046
 20
299.8823631780137
 30
0.0
 10
267.106206621128
 20
299.5237966679417
 30
0.0
 10
265.5859761157006
 20
299.176813975509
 30
0.0
 10
264.0349651345034
 20
298.8228058403433
 30
0.0
 10
262.2419158135277
 20
298.413554033571
 30
0.0
 10
259.6852469151796
 20
297.8300110413467
 30
0.0
 10
257.6981883593369
 20
297.3764778927445
 30
0.0
 10
256.3699765965362
 20
297.073322225277
 30
0.0
  0
SPLINE
  5
9D
330
1F
100
AcDbEntity
  8
0
  6
Continuous
 62
     7
370
    25
100
AcDbSpline
210
0.0
220
0.0
230
1.0
 70
    24
 71
     3
 72
    13
 73
     9
 74
     0
 42
0.00000001
 43
0.00000001
 40
0.0
 40
0.0
 40
0.0
 40
0.0
 40
0.1649272304776904
 40
0.3291782252302801
 40
0.5219202432988929
 40
0.6820453210982793
 40
0.8413177176944868
 40
1.0
 40
1.0
 40
1.0
 40
1.0
 10
279.5290395386579
 20
268.0327758384224
 30
0.0
 10
279.9538749788256
 20
268.9149557199528
 30
0.0
 10
280.8018039460692
 20
270.6756983632077
 30
0.0
 10
282.1256338515929
 20
273.4246594874498
 30
0.0
 10
283.3329281706262
 20
275.931631972883
 30
0.0
 10
284.2403306942164
 20
277.8158727284218
 30
0.0
 10
285.0135252232906
 20
279.421427711757
 30
0.0
 10
285.6181796461234
 20
280.6770055583015
 30
0.0
 10
285.9199457473572
 20
281.3036293242737
 30
0.0
  0
ARC
  5
9E
330
1F
100
AcDbEntity
  8
0
  6
Continuous
 62
     7
370
    25
100
AcDbCircle
 10
301.7050415094
 20
309.4721886792
 30
0.0
 40
32.28988981635703
100
AcDbArc
 50
247.836824457
 51
292.163175543
  0
SPLINE
  5
9F
330
1F
100
AcDbEntity
  8
0
  6
Continuous
 62
     7
370
    25
100
AcDbSpline
210
0.0
220
0.0
230
1.0
 70
    24
 71
     3
 72
    14
 73
    10
 74
     0
 42
0.00000001
 43
0.00000001
 40
0.0
 40
0.0
 40
0.0
 40
0.0
 40
0.1599365945527959
 40
0.3204782349631295
 40
0.4327831140154427
 40
0.5446248701610638
 40
0.657783791987514
 40
0.7712520390670938
 40
1.0
 40
1.0
 40
1.0
 40
1.0
 10
289.5238212189669
 20
279.5680943678035
 30
0.0
 10
289.2196443409267
 20
278.9364645722104
 30
0.0
 10
288.6101398728372
 20
277.6708155029162
 30
0.0
 10
287.9109868747515
 20
276.2190093429134
 30
0.0
 10
287.2344206509583
 20
274.8141051030088
 30
0.0
 10
286.5441558267335
 20
273.3807554262046
 30
0.0
 10
285.7461738076668
 20
271.7237286895326
 30
0.0
 10
284.6083491055118
 20
269.361011349959
 30
0.0
 10
283.7240248541679
 20
267.5246931205358
 30
0.0
 10
283.1329150102676
 20
266.2972408819522
 30
0.0
  0
SPLINE
  5
A0
330
1F
100
AcDbEntity
  8
0
  6
Continuous
 62
     7
370
    25
100
AcDbSpline
210
0.0
220
0.0
230
1.0
 70
    24
 71
     3
 72
    13
 73
     9
 74
     0
 42
0.00000001
 43
0.00000001
 40
0.0
 40
0.0
 40
0.0
 40
0.0
 40
0.1649272304776909
 40
0.3291782252302812
 40
0.521920243298894
 40
0.6820453210982795
 40
0.8413177176944867
 40
1.0
 40
1.0
 40
1.0
 40
1.0
 10
320.2771680086011
 20
266.2972408819524
 30
0.0
 10
319.8523325684334
 20
267.1794207634827
 30
0.0
 10
319.0044036011897
 20
268.9401634067377
 30
0.0
 10
317.6805736956661
 20
271.6891245309798
 30
0.0
 10
316.4732793766327
 20
274.1960970164129
 30
0.0
 10
315.5658768530424
 20
276.0803377719517
 30
0.0
 10
314.7926823239683
 20
277.6858927552869
 30
0.0
 10
314.1880279011355
 20
278.9414706018313
 30
0.0
 10
313.8862617999016
 20
279.5680943678036
 30
0.0
  0
CIRCLE
  5
A1
330
1F
100
AcDbEntity
  8
0
  6
Continuous
 62
     7
370
    25
100
AcDbCircle
 10
301.7050415094
 20
309.4721886792
 30
0.0
 40
57.0
  0
SPLINE
  5
A2
330
1F
100
AcDbEntity
  8
0
  6
Continuous
 62
     7
370
    25
100
AcDbSpline
210
0.0
220
0.0
230
1.0
 70
     8
 71
     3
 72
    17
 73
    13
 74
     0
 42
0.00000001
 43
0.00000001
 40
0.0
 40
0.0
 40
0.0
 40
0.0
 40
0.145522392150525
 40
0.2624588275806641
 40
0.359882836152158
 40
0.457811945066356
 40
0.5434089571657172
 40
0.6239661829573626
 40
0.7083342836253085
 40
0.8033999298611367
 40
0.914873463712412
 40
0.9999999999999999
 40
0.9999999999999999
 40
0.9999999999999999
 40
0.9999999999999999
 10
278.7152451566427
 20
330.3640355018018
 30
0.0
 10
278.9105859059968
 20
330.1676293740085
 30
0.0
 10
279.2628952880551
 20
329.81339851463
 30
0.0
 10
279.4824109780656
 20
329.1014016144379
 30
0.0
 10
279.4689084177561
 20
328.4201725937521
 30
0.0
 10
279.2425505879688
 20
327.8036498039391
 30
0.0
 10
278.8494307805645
 20
327.3147995090121
 30
0.0
 10
278.3697968536353
 20
326.9859670431748
 30
0.0
 10
277.823172735542
 20
326.8037404654672
 30
0.0
 10
277.2176183758502
 20
326.7848181424205
 30
0.0
 10
276.6581835777992
 20
326.9356381677179
 30
0.0
 10
276.3532989752616
 20
327.1457378098343
 30
0.0
 10
276.2212859492077
 20
327.2367095719297
 30
0.0
  0
SPLINE
  5
A3
330
1F
100
AcDbEntity
  8
0
  6
Continuous
 62
     7
370
    25
100
AcDbSpline
210
0.0
220
0.0
230
1.0
 70
     8
 71
     3
 72
    17
 73
    13
 74
     0
 42
0.00000001
 43
0.00000001
 40
0.0
 40
0.0
 40
0.0
 40
0.0
 40
0.1455223921505468
 40
0.2624588275806979
 40
0.3598828361522072
 40
0.4578119450664626
 40
0.5434089571658351
 40
0.6239661829574868
 40
0.7083342836252708
 40
0.8033999298611112
 40
0.9148734637123999
 40
0.9999999999999999
 40
0.9999999999999999
 40
0.9999999999999999
 40
0.9999999999999999
 10
303.7050415094337
 20
340.472188679245
 30
0.0
 10
303.673277980485
 20
340.1970079138895
 30
0.0
 10
303.6159904493738
 20
339.7007020191013
 30
0.0
 10
303.1961946514534
 20
339.0851549355305
 30
0.0
 10
302.6551696476585
 20
338.6709723151465
 30
0.0
 10
302.0320209224802
 20
338.4635503207155
 30
0.0
 10
301.4047161808671
 20
338.4661105890033
 30
0.0
 10
300.8485777445526
 20
338.6360798041663
 30
0.0
 10
300.3652927060766
 20
338.9498313359405
 30
0.0
 10
299.9729416704589
 20
339.4114749232457
 30
0.0
 10
299.7420556230331
 20
339.9428934084392
 30
0.0
 10
299.716225697269
 20
340.3122567734565
 30
0.0
 10
299.7050415094337
 20
340.472188679245
 30
0.0
  0
SPLINE
  5
A4
330
1F
100
AcDbEntity
  8
0
  6
Continuous
 62
     7
370
    25
100
AcDbSpline
210
0.0
220
0.0
230
1.0
 70
     8
 71
     3
 72
    17
 73
    13
 74
     0
 42
0.00000001
 43
0.00000001
 40
0.0
 40
0.0
 40
0.0
 40
0.0
 40
0.1455223921505726
 40
0.2624588275805491
 40
0.3598828361520782
 40
0.4578119450663078
 40
0.5434089571656983
 40
0.6239661829573708
 40
0.7083342836252106
 40
0.8033999298610702
 40
0.9148734637123833
 40
1.0
 40
1.0
 40
1.0
 40
1.0
 10
327.1887970696603
 20
327.2367095719299
 30
0.0
 10
326.9538478475653
 20
327.0899708979894
 30
0.0
 10
326.5301020826646
 20
326.8253184293625
 30
0.0
 10
325.7871095949195
 20
326.769740671214
 30
0.0
 10
325.1259650103964
 20
326.9344924120666
 30
0.0
 10
324.5752690898039
 20
327.2923642054617
 30
0.0
 10
324.1861526791016
 20
327.7844071027237
 30
0.0
 10
323.9722933191027
 20
328.3251877131291
 30
0.0
 10
323.9162708514353
 20
328.8986560515943
 30
0.0
 10
324.0325714722138
 20
329.4932385121975
 30
0.0
 10
324.304096078342
 20
330.0050864989749
 30
0.0
 10
324.5767712902862
 20
330.2555754393957
 30
0.0
 10
324.6948378622254
 20
330.3640355018021
 30
0.0
  0
SPLINE
  5
A5
330
1F
100
AcDbEntity
  8
0
  6
Continuous
 62
     7
370
    25
100
AcDbSpline
210
0.0
220
0.0
230
1.0
 70
     8
 71
     3
 72
    17
 73
    13
 74
     0
 42
0.00000001
 43
0.00000001
 40
0.0
 40
0.0
 40
0.0
 40
0.0
 40
0.1455223921505449
 40
0.2624588275806999
 40
0.3598828361522072
 40
0.4578119450664178
 40
0.5434089571657904
 40
0.6239661829574438
 40
0.708334283625268
 40
0.8033999298610898
 40
0.9148734637124003
 40
0.9999999999999999
 40
0.9999999999999999
 40
0.9999999999999999
 40
0.9999999999999999
 10
331.4827649191581
 20
300.6241839022358
 30
0.0
 10
331.2215515602447
 20
300.7163845341111
 30
0.0
 10
330.7504367653623
 20
300.8826741984477
 30
0.0
 10
330.2437360853513
 20
301.4289169511871
 30
0.0
 10
329.9603272771365
 20
302.0485416320914
 30
0.0
 10
329.8967694214855
 20
302.7022224536319
 30
0.0
 10
330.0388539354809
 20
303.3132296423838
 30
0.0
 10
330.3283141118128
 20
303.8176028184822
 30
0.0
 10
330.741740275758
 20
304.2189546081519
 30
0.0
 10
331.2791158133859
 20
304.4987432219471
 30
0.0
 10
331.8485875065612
 20
304.6055887364687
 30
0.0
 10
332.214437860059
 20
304.5485799711129
 30
0.0
 10
332.3728486549833
 20
304.5238955509632
 30
0.0
  0
SPLINE
  5
A6
330
1F
100
AcDbEntity
  8
0
  6
Continuous
 62
     7
370
    25
100
AcDbSpline
210
0.0
220
0.0
230
1.0
 70
     8
 71
     3
 72
    17
 73
    13
 74
     0
 42
0.00000001
 43
0.00000001
 40
0.0
 40
0.0
 40
0.0
 40
0.0
 40
0.1455223921505439
 40
0.2624588275806989
 40
0.3598828361522063
 40
0.4578119450664178
 40
0.5434089571657923
 40
0.6239661829574439
 40
0.7083342836252686
 40
0.8033999298611101
 40
0.9148734637124007
 40
1.0
 40
1.0
 40
1.0
 40
1.0
 10
313.3534996862737
 20
280.6743862960349
 30
0.0
 10
313.2627211775856
 20
280.9360972773738
 30
0.0
 10
313.098996402259
 20
281.4081095657377
 30
0.0
 10
313.2101434768389
 20
282.1448408952305
 30
0.0
 10
313.5178830580052
 20
282.7527484934254
 30
0.0
 10
313.9893236289448
 20
283.2100033518326
 30
0.0
 10
314.5556165306035
 20
283.4798739566691
 30
0.0
 10
315.1304268265766
 20
283.5680364095205
 30
0.0
 10
315.7019832883269
 20
283.495045566689
 30
0.0
 10
316.2557790025074
 20
283.2493538008405
 30
0.0
 10
316.6943739826629
 20
282.8707399914205
 30
0.0
 10
316.8779066995434
 20
282.5491622833679
 30
0.0
 10
316.9573751578834
 20
282.4099212525052
 30
0.0
  0
SPLINE
  5
A7
330
1F
100
AcDbEntity
  8
0
  6
Continuous
 62
     7
370
    25
100
AcDbSpline
210
0.0
220
0.0
230
1.0
 70
     8
 71
     3
 72
    17
 73
    13
 74
     0
 42
0.00000001
 43
0.00000001
 40
0.0
 40
0.0
 40
0.0
 40
0.0
 40
0.1455223921505471
 40
0.2624588275806995
 40
0.3598828361522087
 40
0.4578119450664181
 40
0.5434089571657911
 40
0.6239661829574455
 40
0.7083342836252703
 40
0.8033999298611108
 40
0.9148734637124014
 40
1.0
 40
1.0
 40
1.0
 40
1.0
 10
286.4527078609851
 20
282.409921252505
 30
0.0
 10
286.6007222711083
 20
282.6440688764282
 30
0.0
 10
286.8676756105353
 20
283.0663689083854
 30
0.0
 10
287.5129744255604
 20
283.4388150969432
 30
0.0
 10
288.1801282147461
 20
283.5772387919328
 30
0.0
 10
288.8315628467236
 20
283.4937454525268
 30
0.0
 10
289.3956340308266
 20
283.2192614036488
 30
0.0
 10
289.8229505695801
 20
282.8248250080699
 30
0.0
 10
290.1222436558103
 20
282.3324551261311
 30
0.0
 10
290.2754400783915
 20
281.7462938915217
 30
0.0
 10
290.2528873797632
 20
281.1673246789674
 30
0.0
 10
290.1158985808301
 20
280.8233326013715
 30
0.0
 10
290.0565833325948
 20
280.6743862960348
 30
0.0
  0
SPLINE
  5
A8
330
1F
100
AcDbEntity
  8
0
  6
Continuous
 62
     7
370
    25
100
AcDbSpline
210
0.0
220
0.0
230
1.0
 70
     8
 71
     3
 72
    17
 73
    13
 74
     0
 42
0.00000001
 43
0.00000001
 40
0.0
 40
0.0
 40
0.0
 40
0.0
 40
0.1455223921505488
 40
0.2624588275807003
 40
0.3598828361522097
 40
0.4578119450664194
 40
0.5434089571657919
 40
0.623966182957446
 40
0.7083342836252703
 40
0.8033999298611112
 40
0.9148734637124011
 40
1.0
 40
1.0
 40
1.0
 40
1.0
 10
271.0372343638849
 20
304.5238955509628
 30
0.0
 10
271.3125838230531
 20
304.554161880915
 30
0.0
 10
271.8091939677894
 20
304.608749119051
 30
0.0
 10
272.5027213538488
 20
304.336450590172
 30
0.0
 10
273.0269089403399
 20
303.9011545163004
 30
0.0
 10
273.3677940686314
 20
303.3397851666077
 30
0.0
 10
273.5048864285939
 20
302.7276385512745
 30
0.0
 10
273.4629311407775
 20
302.1476219581725
 30
0.0
 10
273.2645870530901
 20
301.6066376007414
 30
0.0
 10
272.9018241532307
 20
301.1213982625422
 30
0.0
 10
272.4351064178769
 20
300.7780492727267
 30
0.0
 10
272.0807514627891
 20
300.6706758761767
 30
0.0
 10
271.9273180997102
 20
300.6241839022355
 30
0.0
  0
SPLINE
  5
A9
330
1F
100
AcDbEntity
  8
0
  6
Continuous
 62
     7
370
    25
100
AcDbSpline
210
0.0
220
0.0
230
1.0
 70
    11
 71
     3
 72
    26
 73
    22
 74
     0
 42
0.00000001
 43
0.00000001
 40
0.0
 40
0.0
 40
0.0
 40
0.0
 40
0.0535972164200064
 40
0.1071921782483994
 40
0.1608597534174727
 40
0.2147094977664132
 40
0.2686478624799099
 40
0.3224381663529159
 40
0.375932988174165
 40
0.4292427722145618
 40
0.4826449979174887
 40
0.5363313024995332
 40
0.5902427041024139
 40
0.644147542448074
 40
0.6978798079301017
 40
0.7514722617449191
 40
0.8050492353698594
 40
0.8586625397260989
 40
0.9122900741654474
 40
0.9659177767677246
 40
0.9999999999999999
 40
0.9999999999999999
 40
0.9999999999999999
 40
0.9999999999999999
 10
286.3040142260452
 20
304.7540980991995
 30
0.0
 10
286.1859941881514
 20
304.6326692694054
 30
0.0
 10
285.9499590769312
 20
304.3898167177767
 30
0.0
 10
285.4687386767762
 20
304.200092760586
 30
0.0
 10
284.9589231491952
 20
304.1700947063775
 30
0.0
 10
284.4650956673009
 20
304.3132964244103
 30
0.0
 10
284.0465063829021
 20
304.6119300970531
 30
0.0
 10
283.7508240194652
 20
305.0324960607163
 30
0.0
 10
283.6115678827646
 20
305.5256549830306
 30
0.0
 10
283.6426322460534
 20
306.0355682822281
 30
0.0
 10
283.8396908080638
 20
306.5066985870214
 30
0.0
 10
284.1819559803507
 20
306.8875847334629
 30
0.0
 10
284.6325152988868
 20
307.134584140021
 30
0.0
 10
285.1402637565125
 20
307.2181732077835
 30
0.0
 10
285.6465141107986
 20
307.1286385826904
 30
0.0
 10
286.0938700773588
 20
306.8768693328838
 30
0.0
 10
286.4324253924627
 20
306.4916960720027
 30
0.0
 10
286.6250114045047
 20
306.0155926224831
 30
0.0
 10
286.6474489548981
 20
305.5042960475162
 30
0.0
 10
286.5230370939523
 20
305.0677051018317
 30
0.0
 10
286.3653054203806
 20
304.8418576465333
 30
0.0
 10
286.3040142260452
 20
304.7540980991995
 30
0.0
  0
SPLINE
  5
AA
330
1F
100
AcDbEntity
  8
0
  6
Continuous
 62
     7
370
    25
100
AcDbSpline
210
0.0
220
0.0
230
1.0
 70
    11
 71
     3
 72
    26
 73
    22
 74
     0
 42
0.00000001
 43
0.00000001
 40
0.0
 40
0.0
 40
0.0
 40
0.0
 40
0.0535972164200067
 40
0.1071921782483995
 40
0.1608597534174709
 40
0.2147094977664123
 40
0.2686478624799069
 40
0.3224381663529143
 40
0.3759329881741628
 40
0.4292427722145581
 40
0.4826449979174693
 40
0.5363313024995123
 40
0.590242704102393
 40
0.6441475424480521
 40
0.6978798079300808
 40
0.7514722617448863
 40
0.8050492353698283
 40
0.8586625397260664
 40
0.9122900741654157
 40
0.9659177767676904
 40
1.0
 40
1.0
 40
1.0
 40
1.0
 10
309.731890683109
 20
295.5071712267575
 30
0.0
 10
309.8765369676766
 20
295.4191306542332
 30
0.0
 10
310.1658234521991
 20
295.2430532126518
 30
0.0
 10
310.4578722465553
 20
294.8161155647772
 30
0.0
 10
310.600562814257
 20
294.3257573719142
 30
0.0
 10
310.5708384147589
 20
293.8124457959723
 30
0.0
 10
310.3728369902906
 20
293.3378991751243
 30
0.0
 10
310.0286110090681
 20
292.9560454548452
 30
0.0
 10
309.5788040161601
 20
292.7105425762509
 30
0.0
 10
309.0747628368481
 20
292.6273617075212
 30
0.0
 10
308.5715950971675
 20
292.7146432445217
 30
0.0
 10
308.1240973958405
 20
292.9635719733149
 30
0.0
 10
307.7830318997313
 20
293.3478722904152
 30
0.0
 10
307.5885539234105
 20
293.8242901166948
 30
0.0
 10
307.5631924268693
 20
294.3377710460374
 30
0.0
 10
307.7091032284442
 20
294.8299347931266
 30
0.0
 10
308.0092837465907
 20
295.2457109333851
 30
0.0
 10
308.4305958693469
 20
295.5394113962675
 30
0.0
 10
308.9240803470158
 20
295.6750605818173
 30
0.0
 10
309.3774092896625
 20
295.6509186109653
 30
0.0
 10
309.6326928770459
 20
295.5473973864498
 30
0.0
 10
309.731890683109
 20
295.5071712267575
 30
0.0
  0
SPLINE
  5
AB
330
1F
100
AcDbEntity
  8
0
  6
Continuous
 62
     7
370
    25
100
AcDbSpline
210
0.0
220
0.0
230
1.0
 70
    11
 71
     3
 72
    26
 73
    22
 74
     0
 42
0.00000001
 43
0.00000001
 40
0.0
 40
0.0
 40
0.0
 40
0.0
 40
0.0535972164200077
 40
0.1071921782484013
 40
0.1608597534174722
 40
0.214709497766413
 40
0.2686478624799099
 40
0.3224381663529167
 40
0.375932988174165
 40
0.429242772214562
 40
0.4826449979174902
 40
0.5363313024995332
 40
0.5902427041024133
 40
0.6441475424480745
 40
0.6978798079301013
 40
0.7514722617449179
 40
0.8050492353698602
 40
0.8586625397260976
 40
0.9122900741654479
 40
0.9659177767677238
 40
1.0
 40
1.0
 40
1.0
 40
1.0
 10
313.5337848431178
 20
320.405296711778
 30
0.0
 10
313.5874312283409
 20
320.5659072824206
 30
0.0
 10
313.6947217421273
 20
320.8871216675478
 30
0.0
 10
314.0459682013205
 20
321.2668507530308
 30
0.0
 10
314.4922804521179
 20
321.5150787333374
 30
0.0
 10
314.9993365362875
 20
321.6003221578831
 30
0.0
 10
315.5060447444811
 20
321.5128815997941
 30
0.0
 10
315.9549220815853
 20
321.2622565290732
 30
0.0
 10
316.2943611626098
 20
320.8783566664265
 30
0.0
 10
316.4876162272669
 20
320.405462336423
 30
0.0
 10
316.5144883759973
 20
319.8954880933687
 30
0.0
 10
316.3713784165956
 20
319.403818240488
 30
0.0
 10
316.0726075235286
 20
318.9857891029681
 30
0.0
 10
315.6514099077525
 20
318.6901741558913
 30
0.0
 10
315.1564464812602
 20
318.5511882690522
 30
0.0
 10
314.6441540990181
 20
318.5839240455354
 30
0.0
 10
314.1720058854075
 20
318.7840595163223
 30
0.0
 10
313.7919183392798
 20
319.1294539632339
 30
0.0
 10
313.5498595351588
 20
319.5803809712829
 30
0.0
 10
313.4725210366902
 20
320.0277161047705
 30
0.0
 10
313.5166408256855
 20
320.2996348391959
 30
0.0
 10
313.5337848431178
 20
320.405296711778
 30
0.0
  0
SPLINE
  5
AC
330
1F
100
AcDbEntity
  8
0
  6
Continuous
 62
     7
370
    25
100
AcDbSpline
210
0.0
220
0.0
230
1.0
 70
    11
 71
     3
 72
    26
 73
    22
 74
     0
 42
0.00000001
 43
0.00000001
 40
0.0
 40
0.0
 40
0.0
 40
0.0
 40
0.0564885541921594
 40
0.1128994301864343
 40
0.1712256558510113
 40
0.2300375349558844
 40
0.2867064896555612
 40
0.3395363008405043
 40
0.3890615100952185
 40
0.4374690463182137
 40
0.4871682267512674
 40
0.5398630249434344
 40
0.5960305847836157
 40
0.6545948261962209
 40
0.7132408736153011
 40
0.769672073102963
 40
0.8229238449446743
 40
0.8735646339154175
 40
0.9230009993634265
 40
0.9728027922198441
 40
0.9999999999999999
 40
0.9999999999999999
 40
0.9999999999999999
 40
0.9999999999999999
 10
279.0886030995384
 20
303.5081964624346
 30
0.0
 10
279.0060382607226
 20
303.4241611788025
 30
0.0
 10
278.8410221191511
 20
303.2562061696275
 30
0.0
 10
278.5067839190014
 20
303.1323230183399
 30
0.0
 10
278.1509454218602
 20
303.1218414148868
 30
0.0
 10
277.8072241087437
 20
303.2402868425633
 30
0.0
 10
277.5297331739283
 20
303.4698446758568
 30
0.0
 10
277.3545235752653
 20
303.7699746405144
 30
0.0
 10
277.2904925826035
 20
304.0948335223866
 30
0.0
 10
277.3300417997801
 20
304.4130622427732
 30
0.0
 10
277.4658382917083
 20
304.7038885658392
 30
0.0
 10
277.6926227871097
 20
304.9444017062642
 30
0.0
 10
277.9980471434426
 20
305.1043068326433
 30
0.0
 10
278.3524209263794
 20
305.1523659627849
 30
0.0
 10
278.7071175797619
 20
305.071786482206
 30
0.0
 10
279.0079717913731
 20
304.873390865589
 30
0.0
 10
279.2156914386072
 20
304.5925279555584
 30
0.0
 10
279.3151559125109
 20
304.270611721531
 30
0.0
 10
279.3057604128973
 20
303.9438692928397
 30
0.0
 10
279.2154873033644
 20
303.6849985089816
 30
0.0
 10
279.1217223090366
 20
303.5543451857803
 30
0.0
 10
279.0886030995384
 20
303.5081964624346
 30
0.0
  0
SPLINE
  5
AD
330
1F
100
AcDbEntity
  8
0
  6
Continuous
 62
     7
370
    25
100
AcDbSpline
210
0.0
220
0.0
230
1.0
 70
    11
 71
     3
 72
    26
 73
    22
 74
     0
 42
0.00000001
 43
0.00000001
 40
0.0
 40
0.0
 40
0.0
 40
0.0
 40
0.056488554192173
 40
0.1128994301864664
 40
0.1712256558510568
 40
0.2300375349559382
 40
0.2867064896555284
 40
0.3395363008404838
 40
0.3890615100952084
 40
0.4374690463182144
 40
0.4871682267512784
 40
0.5398630249433326
 40
0.5960305847835247
 40
0.6545948261961395
 40
0.7132408736152335
 40
0.7696720731029094
 40
0.822923844944633
 40
0.8735646339153877
 40
0.9230009993634077
 40
0.9728027922198376
 40
1.0
 40
1.0
 40
1.0
 40
1.0
 10
312.5521349873732
 20
288.7499047174894
 30
0.0
 10
312.6524357360395
 20
288.6881095613621
 30
0.0
 10
312.8528993084153
 20
288.5646042244878
 30
0.0
 10
313.048051446916
 20
288.2663126683706
 30
0.0
 10
313.1374517694082
 20
287.9217281614684
 30
0.0
 10
313.0984612035116
 20
287.5602680721104
 30
0.0
 10
312.9364064063528
 20
287.2386529909191
 30
0.0
 10
312.6827891300591
 20
287.001051062657
 30
0.0
 10
312.3803233748908
 20
286.866337558868
 30
0.0
 10
312.0612727841847
 20
286.8340826425264
 30
0.0
 10
311.747520522019
 20
286.9017594878555
 30
0.0
 10
311.4625732504477
 20
287.0693388138368
 30
0.0
 10
311.2387139664161
 20
287.3315233058193
 30
0.0
 10
311.113004193857
 20
287.6663180356256
 30
0.0
 10
311.1126359480407
 20
288.0300523246419
 30
0.0
 10
311.2391110121826
 20
288.3675106709414
 30
0.0
 10
311.4667101327645
 20
288.6325202299923
 30
0.0
 10
311.7584223270738
 20
288.8011240229229
 30
0.0
 10
312.079063336248
 20
288.8646711184963
 30
0.0
 10
312.3515313457241
 20
288.8342655128913
 30
0.0
 10
312.4997735914425
 20
288.7719245022389
 30
0.0
 10
312.5521349873732
 20
288.7499047174894
 30
0.0
  0
SPLINE
  5
AE
330
1F
100
AcDbEntity
  8
0
  6
Continuous
 62
     7
370
    25
100
AcDbSpline
210
0.0
220
0.0
230
1.0
 70
    11
 71
     3
 72
    26
 73
    22
 74
     0
 42
0.00000001
 43
0.00000001
 40
0.0
 40
0.0
 40
0.0
 40
0.0
 40
0.0564885541921734
 40
0.1128994301864591
 40
0.171225655851052
 40
0.230037534955933
 40
0.2867064896555284
 40
0.3395363008404818
 40
0.3890615100952058
 40
0.4374690463182122
 40
0.4871682267512781
 40
0.5398630249433317
 40
0.5960305847835271
 40
0.6545948261961393
 40
0.7132408736152334
 40
0.7696720731029093
 40
0.8229238449446331
 40
0.8735646339153883
 40
0.9230009993634062
 40
0.9728027922198375
 40
1.0
 40
1.0
 40
1.0
 40
1.0
 10
319.4940691764849
 20
324.6584648578111
 30
0.0
 10
319.5319959827612
 20
324.770001573154
 30
0.0
 10
319.6077974416341
 20
324.9929216281487
 30
0.0
 10
319.8551847695383
 20
325.2495570107534
 30
0.0
 10
320.1712363801656
 20
325.4133931468119
 30
0.0
 10
320.5323101275593
 20
325.4558125924794
 30
0.0
 10
320.8819222320072
 20
325.3693869356676
 30
0.0
 10
321.1700021370465
 20
325.1749997769839
 30
0.0
 10
321.368643054368
 20
324.9100940444709
 30
0.0
 10
321.4710847080378
 20
324.6062201123024
 30
0.0
 10
321.474921108926
 20
324.2852747595771
 30
0.0
 10
321.3749500795206
 20
323.9701818028931
 30
0.0
 10
321.1691524771032
 20
323.6935936004647
 30
0.0
 10
320.8707248061609
 20
323.4965367984027
 30
0.0
 10
320.5161920375843
 20
323.415239291574
 30
0.0
 10
320.159051127183
 20
323.463451815411
 30
0.0
 10
319.8500403421899
 20
323.6263743762671
 30
0.0
 10
319.6207517284379
 20
323.8732548633514
 30
0.0
 10
319.4874485543992
 20
324.1717161739284
 30
0.0
 10
319.4564619920484
 20
324.4441187252999
 30
0.0
 10
319.4842529804382
 20
324.6025164083295
 30
0.0
 10
319.4940691764849
 20
324.6584648578111
 30
0.0
  0
SPLINE
  5
AF
330
1F
100
AcDbEntity
  8
0
  6
Continuous
 62
     7
370
    25
100
AcDbSpline
210
0.0
220
0.0
230
1.0
 70
     8
 71
     3
 72
    22
 73
    18
 74
     0
 42
0.00000001
 43
0.00000001
 40
0.0
 40
0.0
 40
0.0
 40
0.0
 40
0.0400870437062221
 40
0.1145405048296763
 40
0.1899458988790443
 40
0.2645230718435459
 40
0.3378039402278774
 40
0.4101189344195161
 40
0.4819138698798413
 40
0.5534895539908928
 40
0.625015916835207
 40
0.6966240954355634
 40
0.7685040480465893
 40
0.8409815102084705
 40
0.9144884530018338
 40
0.9892623637057795
 40
1.0
 40
1.0
 40
1.0
 40
1.0
 10
306.7061077511623
 20
302.3216092285592
 30
0.0
 10
306.8231442129743
 20
302.2837878100048
 30
0.0
 10
307.1575518963563
 20
302.1757208643265
 30
0.0
 10
307.5984434767408
 20
301.7736989011088
 30
0.0
 10
307.9551746992976
 20
301.1798853916894
 30
0.0
 10
308.0832399366718
 20
300.4902080901178
 30
0.0
 10
307.9740220669256
 20
299.8054311863892
 30
0.0
 10
307.6451161669233
 20
299.2011954451858
 30
0.0
 10
307.1378450900932
 20
298.7429687842808
 30
0.0
 10
306.5098043248044
 20
298.4786185569197
 30
0.0
 10
305.8310794141422
 20
298.4358673005634
 30
0.0
 10
305.1764264180491
 20
298.6186501225574
 30
0.0
 10
304.6197575250226
 20
299.0056738891455
 30
0.0
 10
304.2149703872574
 20
299.5574491526322
 30
0.0
 10
304.0339144481062
 20
300.2075190842097
 30
0.0
 10
304.0108669478737
 20
300.7140523808174
 30
0.0
 10
304.1151958988558
 20
300.9541423070348
 30
0.0
 10
304.1282964258598
 20
300.9842902624411
 30
0.0
  0
SPLINE
  5
B0
330
1F
100
AcDbEntity
  8
0
  6
Continuous
 62
     7
370
    25
100
AcDbSpline
210
0.0
220
0.0
230
1.0
 70
     8
 71
     3
 72
    22
 73
    18
 74
     0
 42
0.00000001
 43
0.00000001
 40
0.0
 40
0.0
 40
0.0
 40
0.0
 40
0.0269170724873045
 40
0.1027079059254646
 40
0.1794677714105394
 40
0.2553845388670465
 40
0.3299817168372073
 40
0.4035956710732899
 40
0.4766802250089964
 40
0.549541589287122
 40
0.6223527463639174
 40
0.6952471888144921
 40
0.7684182870237724
 40
0.8421976275654219
 40
0.9170249408123179
 40
0.9931419799152511
 40
1.0
 40
1.0
 40
1.0
 40
1.0
 10
310.5210108906592
 20
308.987497402555
 30
0.0
 10
310.5890538934154
 20
309.0314064083539
 30
0.0
 10
310.8486866721759
 20
309.1989507071999
 30
0.0
 10
311.3995127812726
 20
309.2775393675346
 30
0.0
 10
312.0848337369518
 20
309.1892031910327
 30
0.0
 10
312.7042531707706
 20
308.8585268226987
 30
0.0
 10
313.1714427193177
 20
308.3463935694123
 30
0.0
 10
313.4388084241931
 20
307.7124550168098
 30
0.0
 10
313.480780044807
 20
307.0301696954636
 30
0.0
 10
313.2958802666477
 20
306.3743227887445
 30
0.0
 10
312.9061328954227
 20
305.8170253353167
 30
0.0
 10
312.3550324602514
 20
305.4191412940988
 30
0.0
 10
311.7054643500886
 20
305.2252956094065
 30
0.0
 10
311.0213227555818
 20
305.2525811978603
 30
0.0
 10
310.4015849170697
 20
305.5173492182692
 30
0.0
 10
309.9978301869846
 20
305.8049818964963
 30
0.0
 10
309.8795873514468
 20
306.0244662010936
 30
0.0
 10
309.8698143937781
 20
306.0426069265591
 30
0.0
  0
SPLINE
  5
B1
330
1F
100
AcDbEntity
  8
0
  6
Continuous
 62
     7
370
    25
100
AcDbSpline
210
0.0
220
0.0
230
1.0
 70
     8
 71
     3
 72
    22
 73
    18
 74
     0
 42
0.00000001
 43
0.00000001
 40
0.0
 40
0.0
 40
0.0
 40
0.0
 40
0.0149179722308056
 40
0.0907526252646152
 40
0.1675568706056041
 40
0.2435175304683839
 40
0.3181578379045952
 40
0.3918143531412978
 40
0.4649411619969752
 40
0.5378446521546607
 40
0.6106979060829765
 40
0.6836344935377465
 40
0.7568478967038568
 40
0.8306698938666716
 40
0.9055404696357121
 40
0.9817015169349423
 40
1.0
 40
1.0
 40
1.0
 40
1.0
 10
307.5954867995508
 20
316.1694150703158
 30
0.0
 10
307.600572098037
 20
316.2138935871151
 30
0.0
 10
307.6315082186258
 20
316.4844760835142
 30
0.0
 10
307.9045065352928
 20
316.9295429401964
 30
0.0
 10
308.3972167456101
 20
317.4111919508838
 30
0.0
 10
309.0429184868061
 20
317.6890561227729
 30
0.0
 10
309.7343552227904
 20
317.7350735464091
 30
0.0
 10
310.3967546052556
 20
317.5488378944093
 30
0.0
 10
310.9563379626682
 20
317.15625756162
 30
0.0
 10
311.3538215496546
 20
316.6027878832333
 30
0.0
 10
311.5465284874732
 20
315.9505804133294
 30
0.0
 10
311.5140052989956
 20
315.2717173447297
 30
0.0
 10
311.2605468503847
 20
314.6426982036298
 30
0.0
 10
310.8127115110533
 20
314.1259829377589
 30
0.0
 10
310.2191065293098
 20
313.8021267158933
 30
0.0
 10
309.7085365210489
 20
313.6684148659295
 30
0.0
 10
309.4296364093096
 20
313.723677432024
 30
0.0
 10
309.375608520839
 20
313.7343827692823
 30
0.0
  0
SPLINE
  5
B2
330
1F
100
AcDbEntity
  8
0
  6
Continuous
 62
     7
370
    25
100
AcDbSpline
210
0.0
220
0.0
230
1.0
 70
     8
 71
     3
 72
    22
 73
    18
 74
     0
 42
0.00000001
 43
0.00000001
 40
0.0
 40
0.0
 40
0.0
 40
0.0
 40
0.0367931029534116
 40
0.1104093009909762
 40
0.1849667270350724
 40
0.2587052457176768
 40
0.3311620373556204
 40
0.4026638164961464
 40
0.4736513852026947
 40
0.5444221681412681
 40
0.6151441844532145
 40
0.6859470964657569
 40
0.7570187262664176
 40
0.8286811463508537
 40
0.9013614700881154
 40
0.9752945141046656
 40
1.0
 40
1.0
 40
1.0
 40
1.0
 10
300.2836515278792
 20
318.1035821845131
 30
0.0
 10
300.20120906591
 20
318.1825089702447
 30
0.0
 10
299.9538144765078
 20
318.4193536651085
 30
0.0
 10
299.7359090910494
 20
318.9656360359654
 30
0.0
 10
299.6716578712425
 20
319.6550480036211
 30
0.0
 10
299.8556457491271
 20
320.3320908168973
 30
0.0
 10
300.2511270380241
 20
320.9016394782194
 30
0.0
 10
300.8096377216443
 20
321.3033373035431
 30
0.0
 10
301.4654891938031
 20
321.496085629961
 30
0.0
 10
302.1460274052454
 20
321.4617650191222
 30
0.0
 10
302.7761044686143
 20
321.2057788659428
 30
0.0
 10
303.2865521216409
 20
320.7571133513112
 30
0.0
 10
303.6204251144968
 20
320.1666643287002
 30
0.0
 10
303.7447548452872
 20
319.4947452797837
 30
0.0
 10
303.629502411157
 20
318.8272788744147
 30
0.0
 10
303.4017913158541
 20
318.3286261660829
 30
0.0
 10
303.1663417790702
 20
318.132804779193
 30
0.0
 10
303.1073699430618
 20
318.0837584023245
 30
0.0
  0
SPLINE
  5
B3
330
1F
100
AcDbEntity
  8
0
  6
Continuous
 62
     7
370
    25
100
AcDbSpline
210
0.0
220
0.0
230
1.0
 70
     8
 71
     3
 72
    22
 73
    18
 74
     0
 42
0.00000001
 43
0.00000001
 40
0.0
 40
0.0
 40
0.0
 40
0.0
 40
0.0273893333543284
 40
0.1029273870781857
 40
0.1794312409061488
 40
0.2550948086297463
 40
0.3294431879988757
 40
0.4028116229093143
 40
0.4756524231901111
 40
0.5482707782017355
 40
0.6208390934644983
 40
0.6934904163252968
 40
0.7664174722347785
 40
0.8399507418497367
 40
0.9145284889419695
 40
0.9903916603603766
 40
1.0
 40
1.0
 40
1.0
 40
1.0
 10
293.977473187514
 20
313.734423462321
 30
0.0
 10
293.8954326216904
 20
313.7241288164911
 30
0.0
 10
293.5871293502888
 20
313.6854421868289
 30
0.0
 10
293.0550771079957
 20
313.8537145290643
 30
0.0
 10
292.4759553970437
 20
314.2308049591367
 30
0.0
 10
292.0613519326198
 20
314.7974495894098
 30
0.0
 10
291.8626352590235
 20
315.4615822621863
 30
0.0
 10
291.8968025346991
 20
316.1487439896525
 30
0.0
 10
292.155020353973
 20
316.7816734397102
 30
0.0
 10
292.6061690429663
 20
317.2923455995235
 30
0.0
 10
293.1991274062657
 20
317.6253493116765
 30
0.0
 10
293.8682654192365
 20
317.7447129843584
 30
0.0
 10
294.5376942238107
 20
317.6375396399114
 30
0.0
 10
295.1419367832857
 20
317.3160624052551
 30
0.0
 10
295.5866003286891
 20
316.8088333890914
 30
0.0
 10
295.8266163167121
 20
316.366271359999
 30
0.0
 10
295.8371454296108
 20
316.108659179608
 30
0.0
 10
295.8383290671946
 20
316.0796995263403
 30
0.0
  0
SPLINE
  5
B4
330
1F
100
AcDbEntity
  8
0
  6
Continuous
 62
     7
370
    25
100
AcDbSpline
210
0.0
220
0.0
230
1.0
 70
     8
 71
     3
 72
    22
 73
    18
 74
     0
 42
0.00000001
 43
0.00000001
 40
0.0
 40
0.0
 40
0.0
 40
0.0
 40
0.0295746948303772
 40
0.1055178899162161
 40
0.1824320650855931
 40
0.2585014473538316
 40
0.333248587376552
 40
0.4070105270991692
 40
0.4802420022726069
 40
0.5532498391122531
 40
0.6262073678194725
 40
0.6992483493283275
 40
0.772566542754572
 40
0.8464942012573723
 40
0.9214719391957572
 40
0.9977419957147543
 40
1.0
 40
1.0
 40
1.0
 40
1.0
 10
293.5647486254808
 20
306.1032081972517
 30
0.0
 10
293.5185894057782
 20
306.0273119122297
 30
0.0
 10
293.3539005225576
 20
305.7565258265596
 30
0.0
 10
292.8865867917123
 20
305.4409395031137
 30
0.0
 10
292.2302779534299
 20
305.2236195745007
 30
0.0
 10
291.5288654067846
 20
305.2526755411618
 30
0.0
 10
290.8856991590779
 20
305.511416321849
 30
0.0
 10
290.3697650879539
 20
305.9665617251407
 30
0.0
 10
290.0359145364928
 20
306.5630701981131
 30
0.0
 10
289.9179442301386
 20
307.2341948396966
 30
0.0
 10
290.0272868534672
 20
307.9053981579128
 30
0.0
 10
290.3511950471284
 20
308.5030284387731
 30
0.0
 10
290.8522569576971
 20
308.9593804022577
 30
0.0
 10
291.4807592526486
 20
309.232141810453
 30
0.0
 10
292.1529607976771
 20
309.2605558792747
 30
0.0
 10
292.6299481507712
 20
309.1840014193444
 30
0.0
 10
292.8214468089159
 20
309.0474112800547
 30
0.0
 10
292.8269531818771
 20
309.0434837525355
 30
0.0
  0
SPLINE
  5
B5
330
1F
100
AcDbEntity
  8
0
  6
Continuous
 62
     7
370
    25
100
AcDbSpline
210
0.0
220
0.0
230
1.0
 70
     8
 71
     3
 72
    22
 73
    18
 74
     0
 42
0.00000001
 43
0.00000001
 40
0.0
 40
0.0
 40
0.0
 40
0.0
 40
0.0247942514909452
 40
0.099715416029025
 40
0.1755944933665293
 40
0.2506401468814619
 40
0.3243813526611684
 40
0.3971506167981081
 40
0.4693965552871844
 40
0.5414218651289674
 40
0.6133975438765755
 40
0.685455552332271
 40
0.7577870420346831
 40
0.8307197947367889
 40
0.9046884950847983
 40
0.9799321222106978
 40
1.0
 40
1.0
 40
1.0
 40
1.0
 10
299.2758057122638
 20
300.9694164623532
 30
0.0
 10
299.3014478954094
 20
300.8984689018753
 30
0.0
 10
299.4045734509921
 20
300.6131380254065
 30
0.0
 10
299.3576550116056
 20
300.0640109850376
 30
0.0
 10
299.1195350746441
 20
299.4156311776368
 30
0.0
 10
298.6591831010535
 20
298.8852971860324
 30
0.0
 10
298.0559652932455
 20
298.5437886350094
 30
0.0
 10
297.3784175167806
 20
298.4241886347505
 30
0.0
 10
296.7039006528653
 20
298.5350942498521
 30
0.0
 10
296.1056432568531
 20
298.8612915727608
 30
0.0
 10
295.6490357246279
 20
299.3653005434664
 30
0.0
 10
295.3837955006265
 20
299.9910352471233
 30
0.0
 10
295.3392145764553
 20
300.6677752077571
 30
0.0
 10
295.518573429969
 20
301.3274698742462
 30
0.0
 10
295.9126198562265
 20
301.8774127101664
 30
0.0
 10
296.3201317693131
 20
302.2217485873391
 30
0.0
 10
296.6015416956407
 20
302.2938241950862
 30
0.0
 10
296.6607926749979
 20
302.3089997448705
 30
0.0
  0
SPLINE
  5
B6
330
1F
100
AcDbEntity
  8
0
  6
Continuous
 62
     7
370
    25
100
AcDbSpline
210
0.0
220
0.0
230
1.0
 70
    11
 71
     3
 72
    26
 73
    22
 74
     0
 42
0.00000001
 43
0.00000001
 40
0.0
 40
0.0
 40
0.0
 40
0.0
 40
0.0535972164200074
 40
0.1071921782484001
 40
0.1608597534174707
 40
0.2147094977664132
 40
0.2686478624799093
 40
0.3224381663529156
 40
0.3759329881741654
 40
0.4292427722145612
 40
0.4826449979174891
 40
0.5363313024995325
 40
0.5902427041024128
 40
0.6441475424480736
 40
0.6978798079301012
 40
0.7514722617449187
 40
0.805049235369859
 40
0.8586625397260977
 40
0.9122900741654473
 40
0.9659177767677231
 40
0.9999999999999999
 40
0.9999999999999999
 40
0.9999999999999999
 40
0.9999999999999999
 10
288.4139063074776
 20
318.5715153108435
 30
0.0
 10
288.2453851354235
 20
318.5880774550026
 30
0.0
 10
287.9083498802362
 20
318.6212010466265
 30
0.0
 10
287.459981705583
 20
318.8791433529969
 30
0.0
 10
287.1186635001141
 20
319.2590297018361
 30
0.0
 10
286.922726712777
 20
319.734404384891
 30
0.0
 10
286.8952217697841
 20
320.2478657150423
 30
0.0
 10
287.0396785424382
 20
320.7412580849407
 30
0.0
 10
287.3384209326844
 20
321.1576124754988
 30
0.0
 10
287.756455517038
 20
321.4512511201784
 30
0.0
 10
288.2476640254525
 20
321.5909294728942
 30
0.0
 10
288.7588516504288
 20
321.5608144138233
 30
0.0
 10
289.2328827028664
 20
321.3625545649267
 30
0.0
 10
289.6148112528725
 20
321.0176977668772
 30
0.0
 10
289.8604521972885
 20
320.5660713762268
 30
0.0
 10
289.9425329544233
 20
320.0593388380241
 30
0.0
 10
289.8524781591939
 20
319.554494034011
 30
0.0
 10
289.6003209079367
 20
319.1070785813084
 30
0.0
 10
289.2145627325984
 20
318.7707479978042
 30
0.0
 10
288.7956526597718
 20
318.5958071052659
 30
0.0
 10
288.5207339190821
 20
318.5783131082923
 30
0.0
 10
288.4139063074776
 20
318.5715153108435
 30
0.0
  0
SPLINE
  5
B7
330
1F
100
AcDbEntity
  8
0
  6
Continuous
 62
     7
370
    25
100
AcDbSpline
210
0.0
220
0.0
230
1.0
 70
    11
 71
     3
 72
    26
 73
    22
 74
     0
 42
0.00000001
 43
0.00000001
 40
0.0
 40
0.0
 40
0.0
 40
0.0
 40
0.056488554192174
 40
0.1128994301864596
 40
0.1712256558510494
 40
0.2300375349559322
 40
0.2867064896555276
 40
0.3395363008404816
 40
0.3890615100952081
 40
0.4374690463182127
 40
0.4871682267512775
 40
0.5398630249433326
 40
0.5960305847835236
 40
0.6545948261961394
 40
0.713240873615233
 40
0.7696720731029094
 40
0.8229238449446321
 40
0.8735646339153884
 40
0.9230009993634083
 40
0.9728027922198387
 40
1.0
 40
1.0
 40
1.0
 40
1.0
 10
282.9410859302014
 20
323.4359439238546
 30
0.0
 10
282.8239061648259
 20
323.4481005718448
 30
0.0
 10
282.5897077696028
 20
323.4723971510491
 30
0.0
 10
282.2844579125938
 20
323.6564752171195
 30
0.0
 10
282.0544013909512
 20
323.9281457839986
 30
0.0
 10
281.9326990218534
 20
324.2707274440208
 30
0.0
 10
281.9391617950038
 20
324.6308055609554
 30
0.0
 10
282.0645714522509
 20
324.9549179134162
 30
0.0
 10
282.2786336825305
 20
325.2075255592236
 30
0.0
 10
282.5520934483354
 20
325.3750170979475
 30
0.0
 10
282.8641383514837
 20
325.4501743718931
 30
0.0
 10
283.1935769167187
 20
325.4228246039206
 30
0.0
 10
283.5090247501421
 20
325.2837334421894
 30
0.0
 10
283.7675473308142
 20
325.0366372396576
 30
0.0
 10
283.9256975021941
 20
324.709083744937
 30
0.0
 10
283.9581650959251
 20
324.3501688069721
 30
0.0
 10
283.8680887123016
 20
324.012651887113
 30
0.0
 10
283.6784195509477
 20
323.734175941059
 30
0.0
 10
283.4171040353463
 20
323.5378010663269
 30
0.0
 10
283.1584263434589
 20
323.4469761316453
 30
0.0
 10
282.9978159443565
 20
323.4388235415693
 30
0.0
 10
282.9410859302014
 20
323.4359439238546
 30
0.0
  0
SPLINE
  5
B8
330
1F
100
AcDbEntity
  8
0
  6
Continuous
 62
     7
370
    25
100
AcDbSpline
210
0.0
220
0.0
230
1.0
 70
    11
 71
     3
 72
    26
 73
    22
 74
     0
 42
0.00000001
 43
0.00000001
 40
0.0
 40
0.0
 40
0.0
 40
0.0
 40
0.056488554192174
 40
0.1128994301864599
 40
0.1712256558510523
 40
0.2300375349559332
 40
0.2867064896555276
 40
0.3395363008404826
 40
0.3890615100952085
 40
0.437469046318214
 40
0.4871682267512811
 40
0.5398630249433325
 40
0.5960305847835277
 40
0.6545948261961397
 40
0.7132408736152346
 40
0.7696720731029101
 40
0.8229238449446337
 40
0.8735646339153895
 40
0.9230009993634086
 40
0.9728027922198383
 40
1.0
 40
1.0
 40
1.0
 40
1.0
 10
300.9232100269658
 20
332.8486988773862
 30
0.0
 10
300.85965408839
 20
332.9478932531117
 30
0.0
 10
300.7326296078949
 20
333.1461456009945
 30
0.0
 10
300.6862274623166
 20
333.4995703461639
 30
0.0
 10
300.7551901692674
 20
333.8488196054454
 30
0.0
 10
300.9471511103945
 20
334.1575665204247
 30
0.0
 10
301.2327009915126
 20
334.3770187546928
 30
0.0
 10
301.5642938748715
 20
334.4810502828673
 30
0.0
 10
301.8952561026182
 20
334.4711879830599
 30
0.0
 10
302.1967056358376
 20
334.3618177952573
 30
0.0
 10
302.4500227735797
 20
334.1647110598728
 30
0.0
 10
302.6340414497035
 20
333.890093316619
 30
0.0
 10
302.7219741076871
 20
333.5567443485041
 30
0.0
 10
302.6899727099486
 20
333.2005612936492
 30
0.0
 10
302.5324860946013
 20
332.8726882471852
 30
0.0
 10
302.2721183101545
 20
332.6235242566905
 30
0.0
 10
301.9520752497654
 20
332.4835104517471
 30
0.0
 10
301.6160972001991
 20
332.4581728609194
 30
0.0
 10
301.2996375817228
 20
332.5400398261371
 30
0.0
 10
301.0673448855355
 20
332.6856537689383
 30
0.0
 10
300.9608319880376
 20
332.8061409785972
 30
0.0
 10
300.9232100269658
 20
332.8486988773862
 30
0.0
  0
SPLINE
  5
B9
330
1F
100
AcDbEntity
  8
0
  6
Continuous
 62
     7
370
    25
100
AcDbSpline
210
0.0
220
0.0
230
1.0
 70
    11
 71
     3
 72
    26
 73
    22
 74
     0
 42
0.00000001
 43
0.00000001
 40
0.0
 40
0.0
 40
0.0
 40
0.0
 40
0.0564885541921893
 40
0.1128994301863495
 40
0.1712256558509598
 40
0.2300375349558541
 40
0.2867064896554654
 40
0.339536300840437
 40
0.389061510095176
 40
0.4374690463181964
 40
0.4871682267512745
 40
0.5398630249433415
 40
0.5960305847834078
 40
0.6545948261960379
 40
0.7132408736151497
 40
0.7696720731028401
 40
0.8229238449445806
 40
0.8735646339153512
 40
0.9230009993633853
 40
0.9728027922198301
 40
1.0
 40
1.0
 40
1.0
 40
1.0
 10
324.6694276626804
 20
305.032655132196
 30
0.0
 10
324.7802775551169
 20
305.0725447655689
 30
0.0
 10
325.001824908758
 20
305.152269179524
 30
0.0
 10
325.3567140064521
 20
305.118863522055
 30
0.0
 10
325.681861211675
 20
304.9739145827903
 30
0.0
 10
325.9401518689858
 20
304.7180638513595
 30
0.0
 10
326.0905611513268
 20
304.390840585809
 30
0.0
 10
326.1181980337929
 20
304.0444122355313
 30
0.0
 10
326.0349369784097
 20
303.7239424899872
 30
0.0
 10
325.8612300978877
 20
303.4543880822743
 30
0.0
 10
325.6126968738048
 20
303.2512825089024
 30
0.0
 10
325.3040163630504
 20
303.1329857618964
 30
0.0
 10
324.9594582923572
 20
303.1214348829542
 30
0.0
 10
324.6193264712464
 20
303.2318921248639
 30
0.0
 10
324.3347179553293
 20
303.4583888384793
 30
0.0
 10
324.1497383088525
 20
303.7676728628426
 30
0.0
 10
324.0844512230265
 20
304.1108477781588
 30
0.0
 10
324.1345110478794
 20
304.4440403009366
 30
0.0
 10
324.2847443272186
 20
304.7343485025071
 30
0.0
 10
324.4783974121652
 20
304.9284149852668
 30
0.0
 10
324.6195651053522
 20
305.0054464556219
 30
0.0
 10
324.6694276626804
 20
305.032655132196
 30
0.0
  0
SPLINE
  5
BA
330
1F
100
AcDbEntity
  8
0
  6
Continuous
 62
     7
370
    25
100
AcDbSpline
210
0.0
220
0.0
230
1.0
 70
    11
 71
     3
 72
    26
 73
    22
 74
     0
 42
0.00000001
 43
0.00000001
 40
0.0
 40
0.0
 40
0.0
 40
0.0
 40
0.0564885541921782
 40
0.1128994301864716
 40
0.171225655851068
 40
0.2300375349559545
 40
0.2867064896555531
 40
0.3395363008405133
 40
0.3890615100952477
 40
0.4374690463182581
 40
0.4871682267513297
 40
0.5398630249433867
 40
0.5960305847835864
 40
0.6545948261962045
 40
0.7132408736153033
 40
0.7696720731028872
 40
0.822923844944616
 40
0.8735646339153773
 40
0.9230009993633996
 40
0.9728027922198358
 40
1.0
 40
1.0
 40
1.0
 40
1.0
 10
292.2667596827946
 20
288.0714567835432
 30
0.0
 10
292.2809827781826
 20
287.9545098508711
 30
0.0
 10
292.3094094105818
 20
287.7207768008835
 30
0.0
 10
292.1978710492211
 20
287.3822189719129
 30
0.0
 10
291.984204222711
 20
287.0974780593138
 30
0.0
 10
291.67729312499
 20
286.9025954317573
 30
0.0
 10
291.3248048159074
 20
286.8287712508142
 30
0.0
 10
290.9809123627525
 20
286.8789148427452
 30
0.0
 10
290.6870047906179
 20
287.0313995967191
 30
0.0
 10
290.4628620919753
 20
287.2607327816343
 30
0.0
 10
290.3201526445174
 20
287.5482300007757
 30
0.0
 10
290.2735097194882
 20
287.8754947492852
 30
0.0
 10
290.3389198288897
 20
288.2139843421404
 30
0.0
 10
290.5222941276323
 20
288.5210092997314
 30
0.0
 10
290.8064434485268
 20
288.7480818256916
 30
0.0
 10
291.1491349203682
 20
288.8596014762685
 30
0.0
 10
291.4982334673834
 20
288.8468880758787
 30
0.0
 10
291.8119327989899
 20
288.7239410439948
 30
0.0
 10
292.0615323182064
 20
288.5128747744798
 30
0.0
 10
292.207641283742
 20
288.280893121692
 30
0.0
 10
292.251328647375
 20
288.1261236825782
 30
0.0
 10
292.2667596827946
 20
288.0714567835432
 30
0.0
  0
SPLINE
  5
BB
330
1F
100
AcDbEntity
  8
0
  6
Continuous
 62
     7
370
    25
100
AcDbSpline
210
0.0
220
0.0
230
1.0
 70
    11
 71
     3
 72
    26
 73
    22
 74
     0
 42
0.00000001
 43
0.00000001
 40
0.0
 40
0.0
 40
0.0
 40
0.0
 40
0.0535972164200066
 40
0.1071921782483991
 40
0.1608597534174707
 40
0.2147094977664298
 40
0.2686478624799251
 40
0.322438166352932
 40
0.3759329881741806
 40
0.4292427722145759
 40
0.4826449979175034
 40
0.5363313024995464
 40
0.5902427041024164
 40
0.6441475424480766
 40
0.6978798079301043
 40
0.7514722617449201
 40
0.8050492353698608
 40
0.8586625397260991
 40
0.9122900741654483
 40
0.9659177767677247
 40
1.0
 40
1.0
 40
1.0
 40
1.0
 10
300.5322942857316
 20
325.5369539764569
 30
0.0
 10
300.4401718592793
 20
325.6790354622113
 30
0.0
 10
300.2559308815472
 20
325.9631924569969
 30
0.0
 10
300.1780453129537
 20
326.4745652091672
 30
0.0
 10
300.2622439999373
 20
326.9782737921091
 30
0.0
 10
300.5117423044048
 20
327.4278546079694
 30
0.0
 10
300.89603348589
 20
327.7694967413228
 30
0.0
 10
301.3718504984453
 20
327.9641809995527
 30
0.0
 10
301.8836323025488
 20
327.9902075101825
 30
0.0
 10
302.3738485395974
 20
327.8464556117638
 30
0.0
 10
302.7893169687525
 20
327.5495013638879
 30
0.0
 10
303.0844923384838
 20
327.1310623530205
 30
0.0
 10
303.2250400738657
 20
326.636836958652
 30
0.0
 10
303.1935487281751
 20
326.1232184975183
 30
0.0
 10
302.9936076214135
 20
325.6495842249701
 30
0.0
 10
302.6486046848581
 20
325.2694683350978
 30
0.0
 10
302.1977528768863
 20
325.0251104223319
 30
0.0
 10
301.6907319155971
 20
324.9432959279433
 30
0.0
 10
301.1872617885896
 20
325.0351951251741
 30
0.0
 10
300.7893013329289
 20
325.2536383460072
 30
0.0
 10
300.6042149441809
 20
325.457671143892
 30
0.0
 10
300.5322942857316
 20
325.5369539764569
 30
0.0
  0
SPLINE
  5
BC
330
1F
100
AcDbEntity
  8
0
  6
Continuous
 62
     7
370
    25
100
AcDbSpline
210
0.0
220
0.0
230
1.0
 70
    11
 71
     3
 72
    26
 73
    22
 74
     0
 42
0.00000001
 43
0.00000001
 40
0.0
 40
0.0
 40
0.0
 40
0.0
 40
0.0535972164200059
 40
0.1071921782483993
 40
0.1608597534174708
 40
0.2147094977664119
 40
0.2686478624799093
 40
0.3224381663529162
 40
0.3759329881741653
 40
0.4292427722145603
 40
0.4826449979174878
 40
0.5363313024995318
 40
0.590242704102413
 40
0.6441475424480733
 40
0.6978798079301006
 40
0.7514722617449175
 40
0.8050492353698591
 40
0.8586625397260971
 40
0.912290074165447
 40
0.9659177767677224
 40
0.9999999999999999
 40
0.9999999999999999
 40
0.9999999999999999
 40
0.9999999999999999
 10
317.6279904078488
 20
307.0407861038414
 30
0.0
 10
317.7870087824875
 20
307.0989827238196
 30
0.0
 10
318.1050388425836
 20
307.2153735157084
 30
0.0
 10
318.6209215816689
 20
307.1775151880737
 30
0.0
 10
319.0932651683188
 20
306.9833418336461
 30
0.0
 10
319.4760554587521
 20
306.6400578295451
 30
0.0
 10
319.7236190779204
 20
306.1893791037171
 30
0.0
 10
319.8075429493051
 20
305.6821704941181
 30
0.0
 10
319.7190347559438
 20
305.1774286848978
 30
0.0
 10
319.4698036428377
 20
304.7314909990885
 30
0.0
 10
319.0878442350576
 20
304.3925177674545
 30
0.0
 10
318.6142136648636
 20
304.1978545000171
 30
0.0
 10
318.101104719642
 20
304.1708060861385
 30
0.0
 10
317.6073712293256
 20
304.3157987377133
 30
0.0
 10
317.1901030386651
 20
304.6161204441688
 30
0.0
 10
316.8962878234249
 20
305.0370571796273
 30
0.0
 10
316.7583804390926
 20
305.5309799424451
 30
0.0
 10
316.7914399827336
 20
306.0434942673697
 30
0.0
 10
316.9930677181019
 20
306.5138918519413
 30
0.0
 10
317.2945886435903
 20
306.8532664185934
 30
0.0
 10
317.5346915093356
 20
306.9883107364057
 30
0.0
 10
317.6279904078488
 20
307.0407861038414
 30
0.0
  0
SPLINE
  5
BD
330
1F
100
AcDbEntity
  8
0
  6
Continuous
 62
     7
370
    25
100
AcDbSpline
210
0.0
220
0.0
230
1.0
 70
    11
 71
     3
 72
    26
 73
    22
 74
     0
 42
0.00000001
 43
0.00000001
 40
0.0
 40
0.0
 40
0.0
 40
0.0
 40
0.053597216420007
 40
0.1071921782483997
 40
0.1608597534174721
 40
0.2147094977664138
 40
0.2686478624799097
 40
0.3224381663529166
 40
0.3759329881741656
 40
0.4292427722145618
 40
0.4826449979174728
 40
0.5363313024995155
 40
0.5902427041023963
 40
0.6441475424480747
 40
0.6978798079301015
 40
0.7514722617449185
 40
0.8050492353698595
 40
0.858662539726098
 40
0.9122900741654475
 40
0.9659177767677243
 40
1.0
 40
1.0
 40
1.0
 40
1.0
 10
295.7914098127084
 20
294.4894993258383
 30
0.0
 10
295.812762404679
 20
294.3215179076226
 30
0.0
 10
295.8554666904136
 20
293.985562137407
 30
0.0
 10
295.7037628411807
 20
293.4910379260832
 30
0.0
 10
295.4093514820977
 20
293.0737446154948
 30
0.0
 10
294.9894954717575
 20
292.776939554044
 30
0.0
 10
294.4950281147703
 20
292.6358683226616
 30
0.0
 10
293.9818614657315
 20
292.666913131469
 30
0.0
 10
293.5094695133271
 20
292.8655178584282
 30
0.0
 10
293.1301715563972
 20
293.2077306975119
 30
0.0
 10
292.8846910555473
 20
293.6555422255669
 30
0.0
 10
292.8003011194759
 20
294.1606145405886
 30
0.0
 10
292.8881083475175
 20
294.6668776115937
 30
0.0
 10
293.1393317679896
 20
295.1159682722367
 30
0.0
 10
293.5249746897433
 20
295.4559468115695
 30
0.0
 10
294.0007376985103
 20
295.6487282304201
 30
0.0
 10
294.5129640664044
 20
295.6732698342172
 30
0.0
 10
295.0052721466392
 20
295.5269939961094
 30
0.0
 10
295.4190094896754
 20
295.2257481791791
 30
0.0
 10
295.682780509442
 20
294.8562690672812
 30
0.0
 10
295.7610110703276
 20
294.5921358939462
 30
0.0
 10
295.7914098127084
 20
294.4894993258383
 30
0.0
  0
LINE
  5
BE
330
1F
100
AcDbEntity
  8
0
  6
Continuous
 62
     7
370
    25
100
AcDbLine
 10
271.9273180997
 20
300.6241839022
 30
0.0
 11
270.7302124968
 21
300.3509523602
 31
0.0
  0
LINE
  5
BF
330
1F
100
AcDbEntity
  8
0
  6
Continuous
 62
     7
370
    25
100
AcDbLine
 10
290.0565833326
 20
280.674386296
 30
0.0
 11
289.523821219
 21
279.5680943678
 31
0.0
  0
LINE
  5
C0
330
1F
100
AcDbEntity
  8
0
  6
Continuous
 62
     7
370
    25
100
AcDbLine
 10
276.2212859492
 20
327.2367095719
 30
0.0
 11
275.2612817925
 21
328.0022873402
 31
0.0
  0
LINE
  5
C1
330
1F
100
AcDbEntity
  8
0
  6
Continuous
 62
     7
370
    25
100
AcDbLine
 10
324.6948378622
 20
330.3640355018
 30
0.0
 11
325.654842019
 21
331.12961327
 31
0.0
  0
LINE
  5
C2
330
1F
100
AcDbEntity
  8
0
  6
Continuous
 62
     7
370
    25
100
AcDbLine
 10
299.7050415094
 20
340.4721886792
 30
0.0
 11
299.7050415094
 21
341.7000800833
 31
0.0
  0
LINE
  5
C3
330
1F
100
AcDbEntity
  8
0
  6
Continuous
 62
     7
370
    25
100
AcDbLine
 10
332.372848655
 20
304.523895551
 30
0.0
 11
333.5699542579
 21
304.2506640089
 31
0.0
  0
LINE
  5
C4
330
1F
100
AcDbEntity
  8
0
  6
Continuous
 62
     7
370
    25
100
AcDbLine
 10
316.9573751579
 20
282.4099212525
 30
0.0
 11
317.4901372715
 21
281.3036293243
 31
0.0
  0
LINE
  5
C5
330
1F
100
AcDbEntity
  8
0
  6
Continuous
 62
     7
370
    25
100
AcDbLine
 10
332.6798705221
 20
300.3509523602
 30
0.0
 11
331.4827649192
 21
300.6241839022
 31
0.0
  0
LINE
  5
C6
330
1F
100
AcDbEntity
  8
0
  6
Continuous
 62
     7
370
    25
100
AcDbLine
 10
285.9199457474
 20
281.3036293243
 30
0.0
 11
286.452707861
 21
282.4099212525
 31
0.0
  0
LINE
  5
C7
330
1F
100
AcDbEntity
  8
0
  6
Continuous
 62
     7
370
    25
100
AcDbLine
 10
313.8862617999
 20
279.5680943678
 30
0.0
 11
313.3534996863
 21
280.674386296
 31
0.0
  0
LINE
  5
C8
330
1F
100
AcDbEntity
  8
0
  6
Continuous
 62
     7
370
    25
100
AcDbLine
 10
277.7552409999
 20
331.12961327
 30
0.0
 11
278.7152451566
 21
330.3640355018
 31
0.0
  0
LINE
  5
C9
330
1F
100
AcDbEntity
  8
0
  6
Continuous
 62
     7
370
    25
100
AcDbLine
 10
303.7050415094
 20
341.7000800833
 30
0.0
 11
303.7050415094
 21
340.4721886792
 31
0.0
  0
LINE
  5
CA
330
1F
100
AcDbEntity
  8
0
  6
Continuous
 62
     7
370
    25
100
AcDbLine
 10
328.1488012264
 20
328.0022873402
 30
0.0
 11
327.1887970697
 21
327.2367095719
 31
0.0
  0
LINE
  5
CB
330
1F
100
AcDbEntity
  8
0
  6
Continuous
 62
     7
370
    25
100
AcDbLine
 10
269.8401287609
 20
304.2506640089
 30
0.0
 11
271.0372343639
 21
304.523895551
 31
0.0
  0
LWPOLYLINE
  5
CC
330
1F
100
AcDbEntity
  8
0
  6
Continuous
 62
     7
370
    25
100
AcDbPolyline
 90
        3
 70
   128
 43
0.0
 10
333.7986641351
 20
332.499333243
 10
333.2339381031
 20
333.2666981212
 10
331.3009221257
 20
335.6319641092
  0
LWPOLYLINE
  5
CD
330
1F
100
AcDbEntity
  8
0
  6
Continuous
 62
     7
370
    25
100
AcDbPolyline
 90
        3
 70
   128
 43
0.0
 10
303.7060765432
 20
348.9214707867
 10
300.6111606475
 20
348.9570392508
 10
299.7016701367
 20
348.9213522083
  0
LWPOLYLINE
  5
CE
330
1F
100
AcDbEntity
  8
0
  6
Continuous
 62
     7
370
    25
100
AcDbPolyline
 90
        3
 70
   128
 43
0.0
 10
272.1119487866
 20
335.6351178558
 10
271.1480428724
 20
334.5025669085
 10
269.6099154988
 20
332.4972377858
  0
LWPOLYLINE
  5
CF
330
1F
100
AcDbEntity
  8
0
  6
Continuous
 62
     7
370
    25
100
AcDbPolyline
 90
        3
 70
   128
 43
0.0
 10
262.7997707324
 20
302.6435793214
 10
263.591099138
 20
299.1002362638
 10
263.6918080601
 20
298.737009001
  0
LWPOLYLINE
  5
D0
330
1F
100
AcDbEntity
  8
0
  6
Continuous
 62
     7
370
    25
100
AcDbPolyline
 90
        3
 70
   128
 43
0.0
 10
282.7778327045
 20
274.8021617561
 10
284.5843158578
 20
273.8754085838
 10
286.4008622984
 20
273.0574650269
  0
LWPOLYLINE
  5
D1
330
1F
100
AcDbEntity
  8
0
  6
Continuous
 62
     7
370
    25
100
AcDbPolyline
 90
        3
 70
   128
 43
0.0
 10
317.0102466958
 20
273.0578962352
 10
317.395601949
 20
273.222274016
 10
320.628946769
 20
274.8003584748
  0
LWPOLYLINE
  5
D2
330
1F
100
AcDbEntity
  8
0
  6
Continuous
 62
     7
370
    25
100
AcDbPolyline
 90
        3
 70
   128
 43
0.0
 10
339.7190494613
 20
298.7397518899
 10
340.334768256
 20
301.2263284157
 10
340.6104109395
 20
302.6441414102
  0
ARC
  5
D3
330
1F
100
AcDbEntity
  8
0
  6
Continuous
 62
     7
370
    25
100
AcDbCircle
 10
76.7050415094
 20
394.4721886792
 30
0.0
 40
39.99999999999993
100
AcDbArc
 50
90.0
 51
180.0
  0
LINE
  5
D4
330
1F
100
AcDbEntity
  8
0
  6
Continuous
 62
     7
370
    25
100
AcDbLine
 10
76.7050415094
 20
434.4721886792
 30
0.0
 11
76.7050415094
 21
433.4301530534
 31
0.0
  0
ARC
  5
D5
330
1F
100
AcDbEntity
  8
0
  6
Continuous
 62
     7
370
    25
100
AcDbCircle
 10
76.7050415094
 20
394.4721886792
 30
0.0
 40
38.95796437412247
100
AcDbArc
 50
90.0
 51
180.0
  0
LINE
  5
D6
330
1F
100
AcDbEntity
  8
0
  6
Continuous
 62
     7
370
    25
100
AcDbLine
 10
36.7050415094
 20
394.4721886792
 30
0.0
 11
37.7470771353
 21
394.4721886792
 31
0.0
  0
ARC
  5
D7
330
1F
100
AcDbEntity
  8
0
  6
Continuous
 62
     7
370
    25
100
AcDbCircle
 10
526.7050415094
 20
394.4721886792
 30
0.0
 40
40.0
100
AcDbArc
 50
0.0
 51
90.0
  0
LINE
  5
D8
330
1F
100
AcDbEntity
  8
0
  6
Continuous
 62
     7
370
    25
100
AcDbLine
 10
566.7050415094
 20
394.4721886792
 30
0.0
 11
565.6630058836
 21
394.4721886792
 31
0.0
  0
ARC
  5
D9
330
1F
100
AcDbEntity
  8
0
  6
Continuous
 62
     7
370
    25
100
AcDbCircle
 10
526.7050415094
 20
394.4721886792
 30
0.0
 40
38.95796437412253
100
AcDbArc
 50
0.0
 51
90.0
  0
LINE
  5
DA
330
1F
100
AcDbEntity
  8
0
  6
Continuous
 62
     7
370
    25
100
AcDbLine
 10
526.7050415094
 20
434.4721886792
 30
0.0
 11
526.7050415094
 21
433.4301530534
 31
0.0
  0
ARC
  5
DB
330
1F
100
AcDbEntity
  8
0
  6
Continuous
 62
     7
370
    25
100
AcDbCircle
 10
526.7050415094
 20
394.4721886792
 30
0.0
 40
26.42344685007231
100
AcDbArc
 50
0.0
 51
90.0
  0
LINE
  5
DC
330
1F
100
AcDbEntity
  8
0
  6
Continuous
 62
     7
370
    25
100
AcDbLine
 10
76.7050415094
 20
420.8956355293
 30
0.0
 11
526.7050415094
 21
420.8956355293
 31
0.0
  0
ARC
  5
DD
330
1F
100
AcDbEntity
  8
0
  6
Continuous
 62
     7
370
    25
100
AcDbCircle
 10
76.7050415094
 20
394.4721886792
 30
0.0
 40
26.42344685007225
100
AcDbArc
 50
90.0
 51
180.0
  0
LINE
  5
DE
330
1F
100
AcDbEntity
  8
0
  6
Continuous
 62
     7
370
    25
100
AcDbLine
 10
50.2815946594
 20
59.4721886792
 30
0.0
 11
50.2815946594
 21
394.4721886792
 31
0.0
  0
ARC
  5
DF
330
1F
100
AcDbEntity
  8
0
  6
Continuous
 62
     7
370
    25
100
AcDbCircle
 10
76.7050415094
 20
59.4721886792
 30
0.0
 40
26.42344685007237
100
AcDbArc
 50
180.0
 51
270.0
  0
LINE
  5
E0
330
1F
100
AcDbEntity
  8
0
  6
Continuous
 62
     7
370
    25
100
AcDbLine
 10
526.7050415094
 20
33.0487418292
 30
0.0
 11
76.7050415094
 21
33.0487418292
 31
0.0
  0
ARC
  5
E1
330
1F
100
AcDbEntity
  8
0
  6
Continuous
 62
     7
370
    25
100
AcDbCircle
 10
526.7050415094
 20
59.4721886792
 30
0.0
 40
26.42344685007231
100
AcDbArc
 50
270.0
 51
0.0
  0
LINE
  5
E2
330
1F
100
AcDbEntity
  8
0
  6
Continuous
 62
     7
370
    25
100
AcDbLine
 10
553.1284883595
 20
394.4721886792
 30
0.0
 11
553.1284883595
 21
59.4721886792
 31
0.0
  0
LINE
  5
E3
330
1F
100
AcDbEntity
  8
0
  6
Continuous
 62
     7
370
    25
100
AcDbLine
 10
76.7050415094
 20
20.5142243051
 30
0.0
 11
526.7050415094
 21
20.5142243051
 31
0.0
  0
ARC
  5
E4
330
1F
100
AcDbEntity
  8
0
  6
Continuous
 62
     7
370
    25
100
AcDbCircle
 10
76.7050415094
 20
59.4721886792
 30
0.0
 40
38.95796437412253
100
AcDbArc
 50
180.0
 51
270.0
  0
LINE
  5
E5
330
1F
100
AcDbEntity
  8
0
  6
Continuous
 62
     7
370
    25
100
AcDbLine
 10
37.7470771353
 20
394.4721886792
 30
0.0
 11
37.7470771353
 21
59.4721886792
 31
0.0
  0
LINE
  5
E6
330
1F
100
AcDbEntity
  8
0
  6
Continuous
 62
     7
370
    25
100
AcDbLine
 10
526.7050415094
 20
433.4301530534
 30
0.0
 11
76.7050415094
 21
433.4301530534
 31
0.0
  0
LINE
  5
E7
330
1F
100
AcDbEntity
  8
0
  6
Continuous
 62
     7
370
    25
100
AcDbLine
 10
565.6630058836
 20
59.4721886792
 30
0.0
 11
565.6630058836
 21
394.4721886792
 31
0.0
  0
ARC
  5
E8
330
1F
100
AcDbEntity
  8
0
  6
Continuous
 62
     7
370
    25
100
AcDbCircle
 10
526.7050415094
 20
59.4721886792
 30
0.0
 40
38.95796437412253
100
AcDbArc
 50
270.0
 51
0.0
  0
LINE
  5
E9
330
1F
100
AcDbEntity
  8
0
  6
Continuous
 62
     7
370
    25
100
AcDbLine
 10
37.7470771353
 20
59.4721886792
 30
0.0
 11
36.7050415094
 21
59.4721886792
 31
0.0
  0
LINE
  5
EA
330
1F
100
AcDbEntity
  8
0
  6
Continuous
 62
     7
370
    25
100
AcDbLine
 10
36.7050415094
 20
59.4721886792
 30
0.0
 11
36.7050415094
 21
394.4721886792
 31
0.0
  0
LINE
  5
EB
330
1F
100
AcDbEntity
  8
0
  6
Continuous
 62
     7
370
    25
100
AcDbLine
 10
566.7050415094
 20
394.4721886792
 30
0.0
 11
566.7050415094
 21
59.4721886792
 31
0.0
  0
LINE
  5
EC
330
1F
100
AcDbEntity
  8
0
  6
Continuous
 62
     7
370
    25
100
AcDbLine
 10
565.6630058836
 20
59.4721886792
 30
0.0
 11
566.7050415094
 21
59.4721886792
 31
0.0
  0
LINE
  5
ED
330
1F
100
AcDbEntity
  8
0
  6
Continuous
 62
     7
370
    25
100
AcDbLine
 10
76.7050415094
 20
434.4721886792
 30
0.0
 11
526.7050415094
 21
434.4721886792
 31
0.0
  0
LINE
  5
EE
330
1F
100
AcDbEntity
  8
0
  6
Continuous
 62
     7
370
    25
100
AcDbLine
 10
553.1284883595
 20
394.4721886792
 30
0.0
 11
551.6305440574
 21
394.4721886792
 31
0.0
  0
ARC
  5
EF
330
1F
100
AcDbEntity
  8
0
  6
Continuous
 62
     7
370
    25
100
AcDbCircle
 10
526.7050415094
 20
394.4721886792
 30
0.0
 40
24.92550254794048
100
AcDbArc
 50
0.0
 51
90.0
  0
LINE
  5
F0
330
1F
100
AcDbEntity
  8
0
  6
Continuous
 62
     7
370
    25
100
AcDbLine
 10
526.7050415094
 20
420.8956355293
 30
0.0
 11
526.7050415094
 21
419.3976912272
 31
0.0
  0
ARC
  5
F1
330
1F
100
AcDbEntity
  8
0
  6
Continuous
 62
     7
370
    25
100
AcDbCircle
 10
76.7050415094
 20
394.4721886792
 30
0.0
 40
24.92550254794037
100
AcDbArc
 50
90.0
 51
180.0
  0
LINE
  5
F2
330
1F
100
AcDbEntity
  8
0
  6
Continuous
 62
     7
370
    25
100
AcDbLine
 10
51.7795389615
 20
394.4721886792
 30
0.0
 11
50.2815946594
 21
394.4721886792
 31
0.0
  0
LINE
  5
F3
330
1F
100
AcDbEntity
  8
0
  6
Continuous
 62
     7
370
    25
100
AcDbLine
 10
76.7050415094
 20
420.8956355293
 30
0.0
 11
76.7050415094
 21
419.3976912272
 31
0.0
  0
LINE
  5
F4
330
1F
100
AcDbEntity
  8
0
  6
Continuous
 62
     7
370
    25
100
AcDbLine
 10
526.7050415094
 20
419.3976912272
 30
0.0
 11
76.7050415094
 21
419.3976912272
 31
0.0
  0
LINE
  5
F5
330
1F
100
AcDbEntity
  8
0
  6
Continuous
 62
     7
370
    25
100
AcDbLine
 10
553.1284883595
 20
59.4721886792
 30
0.0
 11
551.6305440574
 21
59.4721886792
 31
0.0
  0
LINE
  5
F6
330
1F
100
AcDbEntity
  8
0
  6
Continuous
 62
     7
370
    25
100
AcDbLine
 10
551.6305440574
 20
59.4721886792
 30
0.0
 11
551.6305440574
 21
394.4721886792
 31
0.0
  0
LINE
  5
F7
330
1F
100
AcDbEntity
  8
0
  6
Continuous
 62
     7
370
    25
100
AcDbLine
 10
51.7795389615
 20
394.4721886792
 30
0.0
 11
51.7795389615
 21
59.4721886792
 31
0.0
  0
LINE
  5
F8
330
1F
100
AcDbEntity
  8
0
  6
Continuous
 62
     7
370
    25
100
AcDbLine
 10
51.7795389615
 20
59.4721886792
 30
0.0
 11
50.2815946594
 21
59.4721886792
 31
0.0
  0
ARC
  5
F9
330
1F
100
AcDbEntity
  8
0
  6
Continuous
 62
     7
370
    25
100
AcDbCircle
 10
76.7050415094
 20
59.4721886792
 30
0.0
 40
24.92550254794046
100
AcDbArc
 50
180.0
 51
270.0
  0
LINE
  5
FA
330
1F
100
AcDbEntity
  8
0
  6
Continuous
 62
     7
370
    25
100
AcDbLine
 10
76.7050415094
 20
34.5466861313
 30
0.0
 11
76.7050415094
 21
33.0487418292
 31
0.0
  0
ARC
  5
FB
330
1F
100
AcDbEntity
  8
0
  6
Continuous
 62
     7
370
    25
100
AcDbCircle
 10
526.7050415094
 20
59.4721886792
 30
0.0
 40
40.00000000000011
100
AcDbArc
 50
270.0
 51
0.0
  0
LINE
  5
FC
330
1F
100
AcDbEntity
  8
0
  6
Continuous
 62
     7
370
    25
100
AcDbLine
 10
526.7050415094
 20
20.5142243051
 30
0.0
 11
526.7050415094
 21
19.4721886792
 31
0.0
  0
LINE
  5
FD
330
1F
100
AcDbEntity
  8
0
  6
Continuous
 62
     7
370
    25
100
AcDbLine
 10
76.7050415094
 20
20.5142243051
 30
0.0
 11
76.7050415094
 21
19.4721886792
 31
0.0
  0
ARC
  5
FE
330
1F
100
AcDbEntity
  8
0
  6
Continuous
 62
     7
370
    25
100
AcDbCircle
 10
76.7050415094
 20
59.4721886792
 30
0.0
 40
39.99999999999999
100
AcDbArc
 50
180.0
 51
270.0
  0
ARC
  5
FF
330
1F
100
AcDbEntity
  8
0
  6
Continuous
 62
     7
370
    25
100
AcDbCircle
 10
526.7050415094
 20
59.4721886792
 30
0.0
 40
24.92550254794048
100
AcDbArc
 50
270.0
 51
0.0
  0
LINE
  5
100
330
1F
100
AcDbEntity
  8
0
  6
Continuous
 62
     7
370
    25
100
AcDbLine
 10
526.7050415094
 20
34.5466861313
 30
0.0
 11
526.7050415094
 21
33.0487418292
 31
0.0
  0
LINE
  5
101
330
1F
100
AcDbEntity
  8
0
  6
Continuous
 62
     7
370
    25
100
AcDbLine
 10
76.7050415094
 20
34.5466861313
 30
0.0
 11
526.7050415094
 21
34.5466861313
 31
0.0
  0
LINE
  5
102
330
1F
100
AcDbEntity
  8
0
  6
Continuous
 62
     7
370
    25
100
AcDbLine
 10
526.7050415094
 20
19.4721886792
 30
0.0
 11
76.7050415094
 21
19.4721886792
 31
0.0
  0
LINE
  5
103
330
1F
100
AcDbEntity
  8
0
  6
Continuous
 62
     7
370
    25
100
AcDbLine
 10
277.4550415094
 20
417.7490010186
 30
0.0
 11
277.4550415094
 21
416.5976099813
 31
0.0
  0
ARC
  5
104
330
1F
100
AcDbEntity
  8
0
  6
Continuous
 62
     7
370
    25
100
AcDbCircle
 10
278.2057262725
 20
421.3613566445
 30
0.0
 40
4.822531480992111
100
AcDbArc
 50
261.0448095014
 51
272.9633983003
  0
LINE
  5
105
330
1F
100
AcDbEntity
  8
0
  6
Continuous
 62
     7
370
    25
100
AcDbLine
 10
278.4550415094
 20
416.545274025
 30
0.0
 11
324.9550415094
 21
416.545274025
 31
0.0
  0
ARC
  5
106
330
1F
100
AcDbEntity
  8
0
  6
Continuous
 62
     7
370
    25
100
AcDbCircle
 10
325.2043567464
 20
421.3613566445
 30
0.0
 40
4.822531480994845
100
AcDbArc
 50
267.0366016997
 51
278.9551904986
  0
LINE
  5
107
330
1F
100
AcDbEntity
  8
0
  6
Continuous
 62
     7
370
    25
100
AcDbLine
 10
325.9550415094
 20
416.5976099813
 30
0.0
 11
325.9550415094
 21
417.7490010186
 31
0.0
  0
ARC
  5
108
330
1F
100
AcDbEntity
  8
0
  6
Continuous
 62
     7
370
    25
100
AcDbCircle
 10
325.2043567464
 20
412.9852543554
 30
0.0
 40
4.822531481008028
100
AcDbArc
 50
81.0448095014
 51
92.9633983002
  0
LINE
  5
109
330
1F
100
AcDbEntity
  8
0
  6
Continuous
 62
     7
370
    25
100
AcDbLine
 10
324.9550415094
 20
417.8013369749
 30
0.0
 11
278.4550415094
 21
417.8013369749
 31
0.0
  0
ARC
  5
10A
330
1F
100
AcDbEntity
  8
0
  6
Continuous
 62
     7
370
    25
100
AcDbCircle
 10
278.2057262725
 20
412.9852543554
 30
0.0
 40
4.822531481004313
100
AcDbArc
 50
87.0366016998
 51
98.9551904986
  0
SPLINE
  5
10B
330
1F
100
AcDbEntity
  8
0
  6
Continuous
 62
     7
370
    25
100
AcDbSpline
210
0.0
220
0.0
230
1.0
 70
     8
 71
     3
 72
    22
 73
    18
 74
     0
 42
0.00000001
 43
0.00000001
 40
0.0
 40
0.0
 40
0.0
 40
0.0
 40
0.1249999999999999
 40
0.1249999999999999
 40
0.2499999999999998
 40
0.2499999999999998
 40
0.3749999999999998
 40
0.3749999999999998
 40
0.4999999999999999
 40
0.4999999999999999
 40
0.625
 40
0.625
 40
0.7500000000000001
 40
0.7500000000000001
 40
0.8750000000000001
 40
0.8750000000000001
 40
1.0
 40
1.0
 40
1.0
 40
1.0
 10
76.7050415094338
 20
411.8182864603455
 30
0.0
 10
95.43001948664637
 20
411.7461799350659
 30
0.0
 10
114.1606072900309
 20
411.6812474959435
 30
0.0
 10
151.6333519081539
 20
411.5661775652885
 30
0.0
 10
170.3754814145138
 20
411.5160051506314
 30
0.0
 10
207.8722905642799
 20
411.4317099744954
 30
0.0
 10
226.6268826197503
 20
411.3974752018105
 30
0.0
 10
264.1518179144358
 20
411.3491489453402
 30
0.0
 10
282.9224379826085
 20
411.3354114822915
 30
0.0
 10
320.4851614084447
 20
411.3354103076113
 30
0.0
 10
339.2564025580917
 20
411.3491471337505
 30
0.0
 10
376.7818535788446
 20
411.3974728802873
 30
0.0
 10
395.5366716951165
 20
411.431707720198
 30
0.0
 10
433.0338832048071
 20
411.5160032703972
 30
0.0
 10
451.7761886509963
 20
411.5661760026169
 30
0.0
 10
489.249238946179
 20
411.6812466657483
 30
0.0
 10
507.9799563753258
 20
411.7461795224239
 30
0.0
 10
526.7050415094341
 20
411.8182864603455
 30
0.0
  0
LINE
  5
10C
330
1F
100
AcDbEntity
  8
0
  6
Continuous
 62
     7
370
    25
100
AcDbLine
 10
76.7050415094
 20
419.3976912272
 30
0.0
 11
76.7050415094
 21
411.8182864603
 31
0.0
  0
LINE
  5
10D
330
1F
100
AcDbEntity
  8
0
  6
Continuous
 62
     7
370
    25
100
AcDbLine
 10
526.7050415094
 20
419.3976912272
 30
0.0
 11
526.7050415094
 21
411.8182864603
 31
0.0
  0
SPLINE
  5
10E
330
1F
100
AcDbEntity
  8
0
  6
Continuous
 62
     7
370
    25
100
AcDbSpline
210
0.0
220
0.0
230
1.0
 70
     8
 71
     3
 72
    41
 73
    37
 74
     0
 42
0.00000001
 43
0.00000001
 40
0.0
 40
0.0
 40
0.0
 40
0.0
 40
0.0153160310165427
 40
0.0305558422818935
 40
0.0457194989656116
 40
0.0608070662075319
 40
0.0758186091253055
 40
0.0907541928221058
 40
0.1056138823945325
 40
0.120397742940704
 40
0.135105839568546
 40
0.149738237404295
 40
0.1642950016011888
 40
0.1787761973483981
 40
0.1931818898801595
 40
0.2075121444851516
 40
0.221767026516094
 40
0.2359466013996009
 40
0.2500509346462713
 40
0.3131564826390691
 40
0.3758473721597725
 40
0.4381290824808416
 40
0.5000071111278684
 40
0.5618837884169016
 40
0.6241650481395137
 40
0.6868563880150836
 40
0.7499632874748903
 40
0.7766661792317208
 40
0.8036377878853592
 40
0.8308785534097719
 40
0.8583889149258196
 40
0.8861693109311652
 40
0.914220179519688
 40
0.9425419585909621
 40
0.9711350860503168
 40
1.0
 40
1.0
 40
1.0
 40
1.0
 10
59.35894372833359
 20
394.4721886792448
 30
0.0
 10
59.36028361783502
 20
394.6110419689206
 30
0.0
 10
59.36295672891953
 20
394.8880575492021
 30
0.0
 10
59.37951644961306
 20
395.3023083328097
 30
0.0
 10
59.40508087962121
 20
395.714020687901
 30
0.0
 10
59.44038966769952
 20
396.122973254779
 30
0.0
 10
59.48504023476647
 20
396.5289517709688
 30
0.0
 10
59.53892879247918
 20
396.9317491729591
 30
0.0
 10
59.60186746033844
 20
397.3311655815111
 30
0.0
 10
59.67368641580298
 20
397.7270083078911
 30
0.0
 10
59.75420705528822
 20
398.1190918429225
 30
0.0
 10
59.84324945312086
 20
398.5072378465102
 30
0.0
 10
59.94063068281139
 20
398.8912751067666
 30
0.0
 10
60.04616560530934
 20
399.2710395755715
 30
0.0
 10
60.15966683467167
 20
399.6463740886267
 30
0.0
 10
60.28094551007951
 20
400.0171292220259
 30
0.0
 10
60.40980964742612
 20
400.3831599102679
 30
0.0
 10
60.54607127181794
 20
400.7443377291626
 30
0.0
 10
60.85589986926168
 20
401.5136024169533
 30
0.0
 10
61.40150222221249
 20
402.6626580556959
 30
0.0
 10
62.28324888842343
 20
404.1275218008441
 30
0.0
 10
63.29739349995766
 20
405.4904946086101
 30
0.0
 10
64.43411940180219
 20
406.7430929240811
 30
0.0
 10
65.68671534750706
 20
407.8798185577702
 30
0.0
 10
67.04966914549269
 20
408.89395603395
 30
0.0
 10
68.51456594840796
 20
409.7757241837446
 30
0.0
 10
69.76703745679713
 20
410.3704335424734
 30
0.0
 10
70.75406156834518
 20
410.7566958693666
 30
0.0
 10
71.44858711110142
 20
410.9953892026885
 30
0.0
 10
72.1595558698687
 20
411.2064700716786
 30
0.0
 10
72.88596715407952
 20
411.3886928631345
 30
0.0
 10
73.62670409429894
 20
411.5407494528619
 30
0.0
 10
74.38056619042824
 20
411.6616463990136
 30
0.0
 10
75.14625962398836
 20
411.7493699557925
 30
0.0
 10
75.92239970088629
 20
411.805951346058
 30
0.0
 10
76.44333952803994
 20
411.8141618099441
 30
0.0
 10
76.70504150943377
 20
411.8182864603455
 30
0.0
  0
LINE
  5
10F
330
1F
100
AcDbEntity
  8
0
  6
Continuous
 62
     7
370
    25
100
AcDbLine
 10
51.7795389615
 20
394.4721886792
 30
0.0
 11
59.3589437283
 21
394.4721886792
 31
0.0
  0
SPLINE
  5
110
330
1F
100
AcDbEntity
  8
0
  6
Continuous
 62
     7
370
    25
100
AcDbSpline
210
0.0
220
0.0
230
1.0
 70
     8
 71
     3
 72
    41
 73
    37
 74
     0
 42
0.00000001
 43
0.00000001
 40
0.0
 40
0.0
 40
0.0
 40
0.0
 40
0.0153160310250012
 40
0.0305558422977512
 40
0.0457194989878095
 40
0.0608070662350137
 40
0.0758186091570139
 40
0.0907541928569839
 40
0.105613882431521
 40
0.1203977429787464
 40
0.1351058396065884
 40
0.1497382374412774
 40
0.1642950016360568
 40
0.178776197380095
 40
0.1931818899076293
 40
0.207512144507339
 40
0.2217670265319437
 40
0.2359466014080568
 40
0.2500509346462786
 40
0.3131564826647261
 40
0.3758473721939795
 40
0.4381290825064962
 40
0.5000071111278678
 40
0.5618837884150932
 40
0.624165048137102
 40
0.6868563880132744
 40
0.7499632874748882
 40
0.7766661792306384
 40
0.8036377878834683
 40
0.8308785534073408
 40
0.8583889149231183
 40
0.8861693109284641
 40
0.9142201795172569
 40
0.9425419585890699
 40
0.9711350860492364
 40
1.0
 40
1.0
 40
1.0
 40
1.0
 10
526.705041509434
 20
411.8182864603455
 30
0.0
 10
526.8438947991865
 20
411.8169465708427
 30
0.0
 10
527.1209103796117
 20
411.8142734597558
 30
0.0
 10
527.5351611634202
 20
411.797713739046
 30
0.0
 10
527.946873518683
 20
411.772149309015
 30
0.0
 10
528.3558260857027
 20
411.7368405209083
 30
0.0
 10
528.7618046020049
 20
411.69218995381
 30
0.0
 10
529.1646020040778
 20
411.6383013960646
 30
0.0
 10
529.5640184126829
 20
411.575362728174
 30
0.0
 10
529.959861139087
 20
411.5035437726809
 30
0.0
 10
530.3519446741134
 20
411.4230231331724
 30
0.0
 10
530.7400906776679
 20
411.3339807353233
 30
0.0
 10
531.1241279378629
 20
411.2365995056253
 30
0.0
 10
531.5038924065794
 20
411.1310645831308
 30
0.0
 10
531.8792269195192
 20
411.0175633537843
 30
0.0
 10
532.2499820527771
 20
410.8962846784069
 30
0.0
 10
532.6160127408527
 20
410.7674205411068
 30
0.0
 10
532.9771905595566
 20
410.6311589167794
 30
0.0
 10
533.7464552474282
 20
410.3213303192975
 30
0.0
 10
534.895510886374
 20
409.7757279662228
 30
0.0
 10
536.360374631681
 20
408.8939812998224
 30
0.0
 10
537.7233474392111
 20
407.8798366883632
 30
0.0
 10
538.9759457544149
 20
406.7431107867151
 30
0.0
 10
540.1126713879344
 20
405.4905148412008
 30
0.0
 10
541.1268088641087
 20
404.1275610432318
 30
0.0
 10
542.0085770139168
 20
402.6626642403054
 30
0.0
 10
542.6032863726524
 20
401.4101927319058
 30
0.0
 10
542.9895486995464
 20
400.423168620359
 30
0.0
 10
543.2282420328625
 20
399.7286430776239
 30
0.0
 10
543.4393229018508
 20
399.0176743188716
 30
0.0
 10
543.6215456933078
 20
398.2912630346685
 30
0.0
 10
543.7736022830385
 20
397.5505260944499
 30
0.0
 10
543.8944992291941
 20
396.7966639983137
 30
0.0
 10
543.9822227859775
 20
396.0309705647392
 30
0.0
 10
544.0388041762465
 20
395.2548304878194
 30
0.0
 10
544.047014640133
 20
394.7338906606486
 30
0.0
 10
544.0511392905347
 20
394.472188679245
 30
0.0
  0
LINE
  5
111
330
1F
100
AcDbEntity
  8
0
  6
Continuous
 62
     7
370
    25
100
AcDbLine
 10
551.6305440574
 20
394.4721886792
 30
0.0
 11
544.0511392905
 21
394.4721886792
 31
0.0
  0
SPLINE
  5
112
330
1F
100
AcDbEntity
  8
0
  6
Continuous
 62
     7
370
    25
100
AcDbSpline
210
0.0
220
0.0
230
1.0
 70
     8
 71
     3
 72
    16
 73
    12
 74
     0
 42
0.00000001
 43
0.00000001
 40
0.0
 40
0.0
 40
0.0
 40
0.0
 40
0.2499999999999999
 40
0.2499999999999999
 40
0.4999999999999999
 40
0.4999999999999999
 40
0.6249999999999999
 40
0.6249999999999999
 40
0.7499999999999998
 40
0.7499999999999998
 40
1.0
 40
1.0
 40
1.0
 40
1.0
 10
544.0327869535739
 20
394.4639498114386
 30
0.0
 10
543.9918735909184
 20
366.5258524763099
 30
0.0
 10
543.9706464179957
 20
338.5916569453721
 30
0.0
 10
543.9694824874841
 20
282.7314496467224
 30
0.0
 10
543.989548945587
 20
254.8054385163609
 30
0.0
 10
544.0492000572063
 20
212.9222789152278
 30
0.0
 10
544.0739802603049
 20
198.9621962013414
 30
0.0
 10
544.1329300298487
 20
171.0438917460447
 30
0.0
 10
544.1671015834515
 20
157.084267091664
 30
0.0
 10
544.2830897357898
 20
115.2235602263255
 30
0.0
 10
544.378339295031
 20
87.3378225100091
 30
0.0
 10
544.4904272318154
 20
59.47218867924489
 30
0.0
  0
SPLINE
  5
113
330
1F
100
AcDbEntity
  8
0
  6
Continuous
 62
     7
370
    25
100
AcDbSpline
210
0.0
220
0.0
230
1.0
 70
     8
 71
     3
 72
     9
 73
     5
 74
     0
 42
0.00000001
 43
0.00000001
 40
0.0
 40
0.0
 40
0.0
 40
0.0
 40
0.5018461287358782
 40
0.9999999999999999
 40
0.9999999999999999
 40
0.9999999999999999
 40
0.9999999999999999
 10
544.0511392905347
 20
394.472188679245
 30
0.0
 10
544.0480679928819
 20
394.4718504911942
 30
0.0
 10
544.0419479941874
 20
394.4711766032602
 30
0.0
 10
544.0358331078666
 20
394.4663528051464
 30
0.0
 10
544.0327869535733
 20
394.4639498114419
 30
0.0
  0
LINE
  5
114
330
1F
100
AcDbEntity
  8
0
  6
Continuous
 62
     7
370
    25
100
AcDbLine
 10
551.6305440574
 20
59.4721886792
 30
0.0
 11
544.4904272318
 21
59.4721886792
 31
0.0
  0
SPLINE
  5
115
330
1F
100
AcDbEntity
  8
0
  6
Continuous
 62
     7
370
    25
100
AcDbSpline
210
0.0
220
0.0
230
1.0
 70
     8
 71
     3
 72
     9
 73
     5
 74
     0
 42
0.00000001
 43
0.00000001
 40
0.0
 40
0.0
 40
0.0
 40
0.0
 40
0.4981538648246189
 40
1.0
 40
1.0
 40
1.0
 40
1.0
 10
59.37729606525424
 20
394.4639498391607
 30
0.0
 10
59.37424991100298
 20
394.4663528283103
 30
0.0
 10
59.36813502468718
 20
394.4711766173427
 30
0.0
 10
59.3620150260146
 20
394.4718504958968
 30
0.0
 10
59.3589437283335
 20
394.4721886792447
 30
0.0
  0
SPLINE
  5
116
330
1F
100
AcDbEntity
  8
0
  6
Continuous
 62
     7
370
    25
100
AcDbSpline
210
0.0
220
0.0
230
1.0
 70
     8
 71
     3
 72
    14
 73
    10
 74
     0
 42
0.00000001
 43
0.00000001
 40
0.0
 40
0.0
 40
0.0
 40
0.0
 40
0.25
 40
0.25
 40
0.5
 40
0.5
 40
0.75
 40
0.75
 40
1.0
 40
1.0
 40
1.0
 40
1.0
 10
58.91965578705277
 20
59.47218867924489
 30
0.0
 10
59.03179777509823
 20
87.35125992970103
 30
0.0
 10
59.12703734558575
 20
115.2387609648526
 30
0.0
 10
59.28162510472432
 20
171.0316632331757
 30
0.0
 10
59.34095031759143
 20
198.9370759251169
 30
0.0
 10
59.42049443401734
 20
254.7674048957836
 30
0.0
 10
59.44058475171754
 20
282.6923853044536
 30
0.0
 10
59.43945377254759
 20
338.5629495659492
 30
0.0
 10
59.41823479218641
 20
366.5085322634564
 30
0.0
 10
59.37729606525363
 20
394.4639498391566
 30
0.0
  0
LINE
  5
117
330
1F
100
AcDbEntity
  8
0
  6
Continuous
 62
     7
370
    25
100
AcDbLine
 10
51.7795389615
 20
59.4721886792
 30
0.0
 11
58.9196557871
 21
59.4721886792
 31
0.0
  0
SPLINE
  5
118
330
1F
100
AcDbEntity
  8
0
  6
Continuous
 62
     7
370
    25
100
AcDbSpline
210
0.0
220
0.0
230
1.0
 70
     8
 71
     3
 72
    12
 73
     8
 74
     0
 42
0.00000001
 43
0.00000001
 40
0.0
 40
0.0
 40
0.0
 40
0.0
 40
0.125
 40
0.125
 40
0.75
 40
0.75
 40
1.0
 40
1.0
 40
1.0
 40
1.0
 10
76.70504150943414
 20
41.68680295686361
 30
0.0
 10
76.70504150943697
 20
41.68692342687122
 30
0.0
 10
76.7050426409363
 20
41.68704389328715
 30
0.0
 10
76.70505621889106
 20
41.68776667032251
 30
0.0
 10
76.70509582118324
 20
41.68836889510322
 30
0.0
 10
76.70519086609251
 20
41.68921188726477
 30
0.0
 10
76.70522254768952
 20
41.6894527281644
 30
0.0
 10
76.70525875516942
 20
41.68969355518165
 30
0.0
  0
SPLINE
  5
119
330
1F
100
AcDbEntity
  8
0
  6
Continuous
 62
     7
370
    25
100
AcDbSpline
210
0.0
220
0.0
230
1.0
 70
     8
 71
     3
 72
    16
 73
    12
 74
     0
 42
0.00000001
 43
0.00000001
 40
0.0
 40
0.0
 40
0.0
 40
0.0
 40
0.25
 40
0.25
 40
0.5
 40
0.5
 40
0.625
 40
0.625
 40
0.75
 40
0.75
 40
1.0
 40
1.0
 40
1.0
 40
1.0
 10
526.7048242679587
 20
41.68969355516611
 30
0.0
 10
489.2404890582448
 20
41.82541328782622
 30
0.0
 10
451.7651787241045
 20
41.92999522596563
 30
0.0
 10
376.7906460205127
 20
42.07131768075653
 30
0.0
 10
339.2913167936052
 20
42.10775502950087
 30
0.0
 10
283.0230834960257
 20
42.1078263169661
 30
0.0
 10
264.2638178600893
 20
42.0988056951227
 30
0.0
 10
226.739011435405
 20
42.06296106158489
 30
0.0
 10
207.9716307238074
 20
42.0361455186746
 30
0.0
 10
151.6724197411486
 20
41.93009131425548
 30
0.0
 10
114.1733891512793
 20
41.82542703642664
 30
0.0
 10
76.70525875516948
 20
41.68969355518154
 30
0.0
  0
LINE
  5
11A
330
1F
100
AcDbEntity
  8
0
  6
Continuous
 62
     7
370
    25
100
AcDbLine
 10
526.7050415094
 20
41.6868029569
 30
0.0
 11
526.7050415094
 21
41.6896935552
 31
0.0
  0
LINE
  5
11B
330
1F
100
AcDbEntity
  8
0
  6
Continuous
 62
     7
370
    25
100
AcDbLine
 10
526.7050415094
 20
34.5466861313
 30
0.0
 11
526.7050415094
 21
41.6868029569
 31
0.0
  0
LINE
  5
11C
330
1F
100
AcDbEntity
  8
0
  6
Continuous
 62
     7
370
    25
100
AcDbLine
 10
76.7050415094
 20
34.5466861313
 30
0.0
 11
76.7050415094
 21
41.6868029569
 31
0.0
  0
SPLINE
  5
11D
330
1F
100
AcDbEntity
  8
0
  6
Continuous
 62
     7
370
    25
100
AcDbSpline
210
0.0
220
0.0
230
1.0
 70
     8
 71
     3
 72
    41
 73
    37
 74
     0
 42
0.00000001
 43
0.00000001
 40
0.0
 40
0.0
 40
0.0
 40
0.0
 40
0.0153160337971343
 40
0.0305558474951622
 40
0.0457195062637136
 40
0.0608070752426947
 40
0.0758186195498215
 40
0.0907542042883368
 40
0.1056138945549089
 40
0.1203977554477212
 40
0.1351058520747704
 40
0.1497382495623563
 40
0.1642950130637855
 40
0.1787762077682934
 40
0.193181898910187
 40
0.2075121517782086
 40
0.2217670317251494
 40
0.2359466041776872
 40
0.2500509346464918
 40
0.3131564992930211
 40
0.3758473943635166
 40
0.4381290991322744
 40
0.5000071111271532
 40
0.5618838054995513
 40
0.6241650709181843
 40
0.6868564051001841
 40
0.7499632874750245
 40
0.7766661844397236
 40
0.8036377970003554
 40
0.8308785651304106
 40
0.858388927950285
 40
0.8861693239571748
 40
0.9142201912444937
 40
0.9425419677113468
 40
0.9711350912625931
 40
1.0
 40
1.0
 40
1.0
 40
1.0
 10
76.70504150943414
 20
41.68680295686358
 30
0.0
 10
76.56267175023996
 20
41.68817677934075
 30
0.0
 10
76.27864073362825
 20
41.69091758748039
 30
0.0
 10
75.85389902862838
 20
41.70789668668573
 30
0.0
 10
75.43176004747698
 20
41.73410854068899
 30
0.0
 10
75.01245075583157
 20
41.77031152934166
 30
0.0
 10
74.59619084235536
 20
41.81609287751014
 30
0.0
 10
74.18319261440296
 20
41.87134616773589
 30
0.0
 10
73.7736610130823
 20
41.93587876076829
 30
0.0
 10
73.36779360686677
 20
42.00951653264598
 30
0.0
 10
72.96578060282057
 20
42.09207635599563
 30
0.0
 10
72.56780485734116
 20
42.18337374788672
 30
0.0
 10
72.17404191806831
 20
42.28322114858982
 30
0.0
 10
71.78465998742651
 20
42.39142872979737
 30
0.0
 10
71.39982020965901
 20
42.50780435942151
 30
0.0
 10
71.0196757925681
 20
42.63215439316453
 30
0.0
 10
70.64437547514964
 20
42.76428198435908
 30
0.0
 10
70.27405093362968
 20
42.90399439710721
 30
0.0
 10
69.48530460740476
 20
43.22166940964825
 30
0.0
 10
68.30714910841573
 20
43.78108917332851
 30
0.0
 10
66.80518775092453
 20
44.6851660991576
 30
0.0
 10
65.40769796950416
 20
45.72499375681532
 30
0.0
 10
64.12337779674324
 20
46.8905070952928
 30
0.0
 10
62.95786469382372
 20
48.17482494906206
 30
0.0
 10
61.91804425070544
 20
49.57229555679687
 30
0.0
 10
61.01394555290074
 20
51.07429059524429
 30
0.0
 10
60.40417533572251
 20
52.35848065987759
 30
0.0
 10
60.00813099048824
 20
53.3705009765392
 30
0.0
 10
59.76339274827836
 20
54.08261540504927
 30
0.0
 10
59.54696627159262
 20
54.81158943951883
 30
0.0
 10
59.36012871438037
 20
55.55639704529599
 30
0.0
 10
59.20422132443237
 20
56.3158930669872
 30
0.0
 10
59.08026269775055
 20
57.08884660097277
 30
0.0
 10
58.99031757299588
 20
57.87393106237318
 30
0.0
 10
58.93230328273333
 20
58.66972668970966
 30
0.0
 10
58.92388489236633
 20
59.20385917357868
 30
0.0
 10
58.91965578705283
 20
59.47218867924487
 30
0.0
  0
SPLINE
  5
11E
330
1F
100
AcDbEntity
  8
0
  6
Continuous
 62
     7
370
    25
100
AcDbSpline
210
0.0
220
0.0
230
1.0
 70
     8
 71
     3
 72
    41
 73
    37
 74
     0
 42
0.00000001
 43
0.00000001
 40
0.0
 40
0.0
 40
0.0
 40
0.0
 40
0.0153160337952803
 40
0.0305558474916862
 40
0.0457195062588469
 40
0.060807075236669
 40
0.0758186195428696
 40
0.0907542042806911
 40
0.1056138945467989
 40
0.1203977554393802
 40
0.1351058520664304
 40
0.1497382495542474
 40
0.1642950130561404
 40
0.1787762077613441
 40
0.1931818989041645
 40
0.2075121517733439
 40
0.2217670317216736
 40
0.2359466041758324
 40
0.2500509346464899
 40
0.3131564992873501
 40
0.3758473943559548
 40
0.4381290991265999
 40
0.5000071111271444
 40
0.5618838055155808
 40
0.6241650709395581
 40
0.6868564051162108
 40
0.7499632874750135
 40
0.7766661844490996
 40
0.8036377970167741
 40
0.8308785651515274
 40
0.8583889279737521
 40
0.8861693239806461
 40
0.9142201912656218
 40
0.9425419677277828
 40
0.9711350912719866
 40
1.0
 40
1.0
 40
1.0
 40
1.0
 10
544.4904272318154
 20
59.47218867924494
 30
0.0
 10
544.4890534093385
 20
59.32981892006803
 30
0.0
 10
544.4863126011995
 20
59.04578790348861
 30
0.0
 10
544.4693335019977
 20
58.62104619853397
 30
0.0
 10
544.4431216479996
 20
58.1989072174211
 30
0.0
 10
544.4069186593534
 20
57.7795979258075
 30
0.0
 10
544.3611373111919
 20
57.36333801235666
 30
0.0
 10
544.3058840209736
 20
56.95033978442262
 30
0.0
 10
544.2413514279483
 20
56.540808183114
 30
0.0
 10
544.1677136560769
 20
56.13494077690387
 30
0.0
 10
544.0851538327325
 20
55.73292777285663
 30
0.0
 10
543.9938564408452
 20
55.33495202736957
 30
0.0
 10
543.8940090401436
 20
54.94118908808316
 30
0.0
 10
543.7858014589353
 20
54.55180715742128
 30
0.0
 10
543.6694258293077
 20
54.16696737962795
 30
0.0
 10
543.5450757955579
 20
53.78682296250517
 30
0.0
 10
543.4129482043527
 20
53.41152264504942
 30
0.0
 10
543.2732357915903
 20
53.04119810348654
 30
0.0
 10
542.9555607790577
 20
52.25245177728019
 30
0.0
 10
542.3961410154058
 20
51.07429627833721
 30
0.0
 10
541.4920640896197
 20
49.57233492088208
 30
0.0
 10
540.4522364319448
 20
48.17484513940837
 30
0.0
 10
539.2867230933251
 20
46.89052496647891
 30
0.0
 10
538.0024052393532
 20
45.72501186340524
 30
0.0
 10
536.6049346314674
 20
44.68519142023864
 30
0.0
 10
535.102939593122
 20
43.7810927225554
 30
0.0
 10
533.8187495285836
 20
43.17132250544176
 30
0.0
 10
532.8067292119159
 20
42.7752781602129
 30
0.0
 10
532.0946147832151
 20
42.53053991795353
 30
0.0
 10
531.3656407486134
 20
42.31411344125177
 30
0.0
 10
530.620833142766
 20
42.12727588404966
 30
0.0
 10
529.861337121069
 20
41.97136849412947
 30
0.0
 10
529.0883835871438
 20
41.84740986748523
 30
0.0
 10
528.3032991258708
 20
41.75746474276843
 30
0.0
 10
527.5075034987291
 20
41.69945045253695
 30
0.0
 10
526.973371015013
 20
41.69103206217464
 30
0.0
 10
526.7050415094341
 20
41.68680295686361
 30
0.0
  0
LINE
  5
11F
330
1F
100
AcDbEntity
  8
0
  6
Continuous
 62
     7
370
    25
100
AcDbLine
 10
278.4550415094
 20
416.545274025
 30
0.0
 11
278.4550415094
 21
417.3441776528
 31
0.0
  0
ARC
  5
120
330
1F
100
AcDbEntity
  8
0
  6
Continuous
 62
     7
370
    25
100
AcDbCircle
 10
278.2057262725
 20
422.1602602723
 30
0.0
 40
4.822531480992108
100
AcDbArc
 50
261.0448095014
 51
272.9633983003
  0
LINE
  5
121
330
1F
100
AcDbEntity
  8
0
  6
Continuous
 62
     7
370
    25
100
AcDbLine
 10
324.9550415094
 20
416.545274025
 30
0.0
 11
324.9550415094
 21
417.3441776528
 31
0.0
  0
ARC
  5
122
330
1F
100
AcDbEntity
  8
0
  6
Continuous
 62
     7
370
    25
100
AcDbCircle
 10
325.2043567464
 20
422.1602602723
 30
0.0
 40
4.822531480994773
100
AcDbArc
 50
267.0366016997
 51
278.9551904986
  0
LINE
  5
123
330
1F
100
AcDbEntity
  8
0
  6
Continuous
 62
     7
370
    25
100
AcDbLine
 10
278.4550415094
 20
417.3441776528
 30
0.0
 11
324.9550415094
 21
417.3441776528
 31
0.0
  0
SPLINE
  5
124
330
1F
100
AcDbEntity
  8
0
  6
Continuous
 62
     7
370
    25
100
AcDbSpline
210
0.0
220
0.0
230
1.0
 70
     8
 71
     3
 72
     8
 73
     4
 74
     0
 42
0.00000001
 43
0.00000001
 40
0.0
 40
0.0
 40
0.0
 40
0.0
 40
1.0
 40
1.0
 40
1.0
 40
1.0
 10
58.93039407744832
 20
59.4617458953696
 30
0.0
 10
58.92657073624688
 20
59.46522665292891
 30
0.0
 10
58.92299127115302
 20
59.46870762867357
 30
0.0
 10
58.91965578705285
 20
59.47218867924489
 30
0.0
  0
SPLINE
  5
125
330
1F
100
AcDbEntity
  8
0
  6
Continuous
 62
     7
370
    25
100
AcDbSpline
210
0.0
220
0.0
230
1.0
 70
     8
 71
     3
 72
    84
 73
    80
 74
     0
 42
0.00000001
 43
0.00000001
 40
0.0
 40
0.0
 40
0.0
 40
0.0
 40
0.0182887831640442
 40
0.0182887831640442
 40
0.0365775663280884
 40
0.0365775663280884
 40
0.0731551326561769
 40
0.0731551326561769
 40
0.1097326989842653
 40
0.1097326989842653
 40
0.1463102653123537
 40
0.1463102653123537
 40
0.1828878316404422
 40
0.1828878316404422
 40
0.2194653979685306
 40
0.2194653979685306
 40
0.256042964296619
 40
0.256042964296619
 40
0.2743317474606632
 40
0.2743317474606632
 40
0.2834761390426854
 40
0.2834761390426854
 40
0.2926205306247075
 40
0.2926205306247075
 40
0.3247616656053965
 40
0.3247616656053965
 40
0.3569028005860856
 40
0.3569028005860856
 40
0.3890439355667746
 40
0.3890439355667746
 40
0.4211850705474637
 40
0.4211850705474637
 40
0.4533262055281527
 40
0.4533262055281527
 40
0.4854673405088418
 40
0.4854673405088418
 40
0.5176084754895308
 40
0.5176084754895308
 40
0.5336790429798753
 40
0.5336790429798753
 40
0.5497496104702199
 40
0.5497496104702199
 40
0.5786558039901706
 40
0.5786558039901706
 40
0.6075619975101212
 40
0.6075619975101212
 40
0.6364681910300718
 40
0.6364681910300718
 40
0.6653743845500224
 40
0.6653743845500224
 40
0.694280578069973
 40
0.694280578069973
 40
0.7231867715899236
 40
0.7231867715899236
 40
0.7520929651098742
 40
0.7520929651098742
 40
0.7665460618698496
 40
0.7665460618698496
 40
0.7809991586298249
 40
0.7809991586298249
 40
0.794686711215461
 40
0.794686711215461
 40
0.8083742638010969
 40
0.8083742638010969
 40
0.8357493689723687
 40
0.8357493689723687
 40
0.8904995793149124
 40
0.8904995793149124
 40
0.9178746844861843
 40
0.9178746844861843
 40
0.9452497896574562
 40
0.9452497896574562
 40
0.9726248948287282
 40
0.9726248948287282
 40
0.9863124474143641
 40
0.9863124474143641
 40
0.993156223707182
 40
0.993156223707182
 40
1.0
 40
1.0
 40
1.0
 40
1.0
 10
59.37729606525394
 20
394.4639498391605
 30
0.0
 10
59.38968886987767
 20
394.4651174893049
 30
0.0
 10
59.40539930025424
 20
394.4652026241684
 30
0.0
 10
59.44322443492006
 20
394.4632764423292
 30
0.0
 10
59.46533913920937
 20
394.4612651256264
 30
0.0
 10
59.54094319655645
 20
394.452189366662
 30
0.0
 10
59.60369249409359
 20
394.4420831155444
 30
0.0
 10
59.75203645370097
 20
394.4143077549919
 30
0.0
 10
59.83754306881895
 20
394.3966699867934
 30
0.0
 10
60.03089824318531
 20
394.3540022583641
 30
0.0
 10
60.13874680243364
 20
394.328972298133
 30
0.0
 10
60.37645853856277
 20
394.2716281694504
 30
0.0
 10
60.50637504781781
 20
394.2392986496408
 30
0.0
 10
60.7892394611379
 20
394.1670314438558
 30
0.0
 10
60.94218736520279
 20
394.1270937578805
 30
0.0
 10
61.27202468057141
 20
394.0393169645357
 30
0.0
 10
61.44785126737129
 20
393.9917917974701
 30
0.0
 10
61.72751976873042
 20
393.9151646933975
 30
0.0
 10
61.82345027352809
 20
393.8887166278714
 30
0.0
 10
61.9714931607529
 20
393.8476566808747
 30
0.0
 10
62.02153197816445
 20
393.833738723758
 30
0.0
 10
62.12300626024747
 20
393.8054353095463
 30
0.0
 10
62.17444172491899
 20
393.7910498524512
 30
0.0
 10
62.40985000405102
 20
393.725035348269
 30
0.0
 10
62.6011686331664
 20
393.6709044816063
 30
0.0
 10
62.99960826500545
 20
393.5572333396813
 30
0.0
 10
63.20672926772924
 20
393.497693064419
 30
0.0
 10
63.63647347323997
 20
393.3732697195662
 30
0.0
 10
63.85909667602696
 20
393.3083866499759
 30
0.0
 10
64.31954510811889
 20
393.1733443307389
 30
0.0
 10
64.55737033742376
 20
393.1031850810922
 30
0.0
 10
65.04792264900627
 20
392.9576570160145
 30
0.0
 10
65.29974547700424
 20
392.8825708168595
 30
0.0
 10
65.81400033148277
 20
392.7285222800193
 30
0.0
 10
66.07673604118075
 20
392.6494658568394
 30
0.0
 10
66.6128160278201
 20
392.487479428468
 30
0.0
 10
66.88615035540197
 20
392.4045520675137
 30
0.0
 10
67.30377749950117
 20
392.2773647358167
 30
0.0
 10
67.44425748965533
 20
392.2345029102067
 30
0.0
 10
67.72770671276157
 20
392.1478646505462
 30
0.0
 10
67.8706759457135
 20
392.1040882164956
 30
0.0
 10
68.27421416827956
 20
391.9803155499657
 30
0.0
 10
68.53892386423554
 20
391.8988772865147
 30
0.0
 10
69.07846471889279
 20
391.7324118026407
 30
0.0
 10
69.35329587759398
 20
391.6473845822177
 30
0.0
 10
69.91248310645004
 20
391.4739334094968
 30
0.0
 10
70.1968391766048
 20
391.3855094571989
 30
0.0
 10
70.77447967707596
 20
391.2054570458258
 30
0.0
 10
71.0677641073924
 20
391.1138285867504
 30
0.0
 10
71.66266477689487
 20
390.9275593869196
 30
0.0
 10
71.96323085607365
 20
390.8332543975848
 30
0.0
 10
72.56936469734715
 20
390.6427180120889
 30
0.0
 10
72.87493245944194
 20
390.546486615928
 30
0.0
 10
73.48983986060725
 20
390.352511788792
 30
0.0
 10
73.79927688666088
 20
390.2547377112289
 30
0.0
 10
74.26569264138327
 20
390.107147716026
 30
0.0
 10
74.42154126223116
 20
390.0577962378152
 30
0.0
 10
74.73387278037991
 20
389.9588255079636
 30
0.0
 10
74.89035567768087
 20
389.9092062563226
 30
0.0
 10
75.19553447154559
 20
389.8123760226159
 30
0.0
 10
75.34473183380658
 20
389.7650090486937
 30
0.0
 10
75.64455753964411
 20
389.669767927103
 30
0.0
 10
75.7951858832206
 20
389.6218937794345
 30
0.0
 10
76.24908673926628
 20
389.4775566716207
 30
0.0
 10
76.55437507705155
 20
389.3803790466674
 30
0.0
 10
77.47725821841539
 20
389.0863562790675
 30
0.0
 10
78.10187185578205
 20
388.8870217997467
 30
0.0
 10
79.04840777537908
 20
388.5846321411066
 30
0.0
 10
79.36558588903503
 20
388.4832542463012
 30
0.0
 10
80.00252158641979
 20
388.2796113328659
 30
0.0
 10
80.32227917014868
 20
388.177346314236
 30
0.0
 10
80.9636209968388
 20
387.9722047131787
 30
0.0
 10
81.28522498102242
 20
387.8693142311305
 30
0.0
 10
81.76841025041965
 20
387.7146987291798
 30
0.0
 10
81.92956111548644
 20
387.6631266914684
 30
0.0
 10
82.1715478511037
 20
387.5856780097203
 30
0.0
 10
82.25262834687491
 20
387.5597268144845
 30
0.0
 10
82.41424588226526
 20
387.5079958825083
 30
0.0
 10
82.4947829218844
 20
387.4822161457678
 30
0.0
 10
82.57435825478588
 20
387.456742835509
 30
0.0
  0
SPLINE
  5
126
330
1F
100
AcDbEntity
  8
0
  6
Continuous
 62
     7
370
    25
100
AcDbSpline
210
0.0
220
0.0
230
1.0
 70
     8
 71
     3
 72
    14
 73
    10
 74
     0
 42
0.00000001
 43
0.00000001
 40
0.0
 40
0.0
 40
0.0
 40
0.0
 40
0.2500000000000001
 40
0.2500000000000001
 40
0.5000000000000001
 40
0.5000000000000001
 40
0.75
 40
0.75
 40
1.0
 40
1.0
 40
1.0
 40
1.0
 10
82.5743582547859
 20
387.456742835509
 30
0.0
 10
82.59426063483352
 20
360.5528559174357
 30
0.0
 10
82.60195907748891
 20
333.638077241751
 30
0.0
 10
82.60074736540246
 20
279.8298039706122
 30
0.0
 10
82.5917782111008
 20
252.9331585914425
 30
0.0
 10
82.54853544544518
 20
199.1541785907325
 30
0.0
 10
82.51360359270276
 20
172.2718048547124
 30
0.0
 10
82.40892569168456
 20
118.5202178535972
 30
0.0
 10
82.33933062358612
 20
91.66463003451547
 30
0.0
 10
82.25197140120014
 20
64.82833461546159
 30
0.0
  0
SPLINE
  5
127
330
1F
100
AcDbEntity
  8
0
  6
Continuous
 62
     7
370
    25
100
AcDbSpline
210
0.0
220
0.0
230
1.0
 70
     8
 71
     3
 72
    35
 73
    31
 74
     0
 42
0.00000001
 43
0.00000001
 40
0.0
 40
0.0
 40
0.0
 40
0.0
 40
0.0138632418175152
 40
0.0271077019675489
 40
0.0397333697858659
 40
0.0517402358277088
 40
0.0631282917972108
 40
0.0738975304867885
 40
0.0840479457285153
 40
0.0935795323604308
 40
0.1024922862120253
 40
0.1107862041153893
 40
0.1184612839522176
 40
0.1255175247529297
 40
0.1911762099066577
 40
0.2497582340113806
 40
0.3146320319406323
 40
0.3753831229694686
 40
0.4994231858585923
 40
0.5630709137116676
 40
0.6248102594227061
 40
0.6878731149856626
 40
0.7497755477327392
 40
0.8119362225610144
 40
0.8732921833437591
 40
0.8987403541221068
 40
0.924132095437028
 40
0.9494705256100245
 40
0.9747587780218024
 40
1.0
 40
1.0
 40
1.0
 40
1.0
 10
82.25197140120011
 20
64.82833461546167
 30
0.0
 10
82.08888446470938
 20
64.78015211177157
 30
0.0
 10
81.76998992854075
 20
64.68593771608595
 30
0.0
 10
81.3034675351559
 20
64.54880872237526
 30
0.0
 10
80.85952726480767
 20
64.41873942938273
 30
0.0
 10
80.43822892042571
 20
64.29570845594212
 30
0.0
 10
80.03953614215406
 20
64.17961557891661
 30
0.0
 10
79.66340051167411
 20
64.07038568210518
 30
0.0
 10
79.30974651279787
 20
63.9679428652025
 30
0.0
 10
78.97848087998752
 20
63.87221714674457
 30
0.0
 10
78.66949532344752
 20
63.78314188658826
 30
0.0
 10
78.38267144210268
 20
63.70065752059645
 30
0.0
 10
78.11788180946245
 20
63.62470018460753
 30
0.0
 10
77.19552345834235
 20
63.36091565424956
 30
0.0
 10
75.70602285390702
 20
62.9404876869509
 30
0.0
 10
73.62242424024049
 20
62.36503528229289
 30
0.0
 10
71.66481845153322
 20
61.8394739170211
 30
0.0
 10
69.13483773987397
 20
61.18139143412202
 30
0.0
 10
66.81979278492547
 20
60.61459492313806
 30
0.0
 10
64.77339828268519
 20
60.15413914106657
 30
0.0
 10
63.37876789647612
 20
59.86341776062301
 30
0.0
 10
62.16065586401834
 20
59.63550008384852
 30
0.0
 10
61.11650785994624
 20
59.46914801088868
 30
0.0
 10
60.26660333968969
 20
59.36730009690497
 30
0.0
 10
59.73882189924845
 20
59.3366825282052
 30
0.0
 10
59.42670420889895
 20
59.34106198973011
 30
0.0
 10
59.24881543538593
 20
59.35479418032319
 30
0.0
 10
59.10640626751393
 20
59.37943984118429
 30
0.0
 10
58.99633951318678
 20
59.41392799547293
 30
0.0
 10
58.95236224537751
 20
59.44581648883545
 30
0.0
 10
58.93039407744832
 20
59.4617458953696
 30
0.0
  0
SPLINE
  5
128
330
1F
100
AcDbEntity
  8
0
  6
Continuous
 62
     7
370
    25
100
AcDbSpline
210
0.0
220
0.0
230
1.0
 70
     8
 71
     3
 72
    84
 73
    80
 74
     0
 42
0.00000001
 43
0.00000001
 40
0.0
 40
0.0
 40
0.0
 40
0.0
 40
0.018331975505145
 40
0.018331975505145
 40
0.0366639510102899
 40
0.0366639510102899
 40
0.0733279020205799
 40
0.0733279020205799
 40
0.1099918530308698
 40
0.1099918530308698
 40
0.1466558040411597
 40
0.1466558040411597
 40
0.2199837060617396
 40
0.2199837060617396
 40
0.2383156815668846
 40
0.2383156815668846
 40
0.2566476570720295
 40
0.2566476570720295
 40
0.2749796325771745
 40
0.2749796325771745
 40
0.284145620329747
 40
0.284145620329747
 40
0.2933116080823195
 40
0.2933116080823195
 40
0.3254726558040975
 40
0.3254726558040975
 40
0.3576337035258754
 40
0.3576337035258754
 40
0.3897947512476534
 40
0.3897947512476534
 40
0.4219557989694314
 40
0.4219557989694314
 40
0.4541168466912094
 40
0.4541168466912094
 40
0.4862778944129874
 40
0.4862778944129874
 40
0.5184389421347654
 40
0.5184389421347654
 40
0.5345194659956544
 40
0.5345194659956544
 40
0.5505999898565433
 40
0.5505999898565433
 40
0.5794670800555797
 40
0.5794670800555797
 40
0.6083341702546159
 40
0.6083341702546159
 40
0.6372012604536521
 40
0.6372012604536521
 40
0.6660683506526884
 40
0.6660683506526884
 40
0.6949354408517248
 40
0.6949354408517248
 40
0.723802531050761
 40
0.723802531050761
 40
0.7526696212497972
 40
0.7526696212497972
 40
0.7671031663493153
 40
0.7671031663493153
 40
0.7815367114488335
 40
0.7815367114488335
 40
0.7951906669832813
 40
0.7951906669832813
 40
0.8088446225177293
 40
0.8088446225177293
 40
0.8361525335866251
 40
0.8361525335866251
 40
0.8907683557244168
 40
0.8907683557244168
 40
0.9180762667933127
 40
0.9180762667933127
 40
0.9453841778622084
 40
0.9453841778622084
 40
0.9726920889311041
 40
0.9726920889311041
 40
0.9863460444655521
 40
0.9863460444655521
 40
0.993173022232776
 40
0.993173022232776
 40
1.0
 40
1.0
 40
1.0
 40
1.0
 10
76.70525875516942
 20
41.68969355518165
 30
0.0
 10
76.69417477221762
 20
41.70205081366643
 30
0.0
 10
76.68415468670375
 20
41.7177139391314
 30
0.0
 10
76.66618947298743
 20
41.75541975338612
 30
0.0
 10
76.65824434478502
 20
41.77746244217587
 30
0.0
 10
76.63744213979584
 20
41.8528115975787
 30
0.0
 10
76.62761824263242
 20
41.91533915322543
 30
0.0
 10
76.61563622678213
 20
42.06312647018995
 30
0.0
 10
76.61342552112494
 20
42.14830788099591
 30
0.0
 10
76.61635750609413
 20
42.34096578894844
 30
0.0
 10
76.62150019672048
 20
42.44844228609493
 30
0.0
 10
76.64764755064257
 20
42.80389377958477
 30
0.0
 10
76.67947396079772
 20
43.08544983042617
 30
0.0
 10
76.73804643990267
 20
43.49647512691526
 30
0.0
 10
76.7506605259543
 20
43.58139355569799
 30
0.0
 10
76.77768142669062
 20
43.75661201064543
 30
0.0
 10
76.79208824137524
 20
43.84691203681015
 30
0.0
 10
76.82268814754973
 20
44.03284854493381
 30
0.0
 10
76.83888978203912
 20
44.12853259616472
 30
0.0
 10
76.86456811600418
 20
44.27622712977683
 30
0.0
 10
76.87335687436453
 20
44.32615338377516
 30
0.0
 10
76.8913969118501
 20
44.42741117086235
 30
0.0
 10
76.90064819097542
 20
44.47874270395119
 30
0.0
 10
76.94341125237253
 20
44.71338674949168
 30
0.0
 10
76.97945090873182
 20
44.90407382886674
 30
0.0
 10
77.05700112447767
 20
45.30127444329474
 30
0.0
 10
77.09851168386422
 20
45.50778797834773
 30
0.0
 10
77.18695244639761
 20
45.93629775337035
 30
0.0
 10
77.2338826495444
 20
46.15829399333998
 30
0.0
 10
77.33311144033117
 20
46.61742542743458
 30
0.0
 10
77.38541002797118
 20
46.85456062155954
 30
0.0
 10
77.49532432847711
 20
47.34362621320351
 30
0.0
 10
77.5527298746867
 20
47.59468508616271
 30
0.0
 10
77.67184210128403
 20
48.10746910168234
 30
0.0
 10
77.73361878152618
 20
48.36948793000595
 30
0.0
 10
77.86143737036654
 20
48.90420950720242
 30
0.0
 10
77.92747818590767
 20
49.17690509331734
 30
0.0
 10
78.02964005598861
 20
49.59364895745025
 30
0.0
 10
78.06421078714376
 20
49.73384699298799
 30
0.0
 10
78.13436969255572
 20
50.01675960716451
 30
0.0
 10
78.16995786681524
 20
50.15947418580324
 30
0.0
 10
78.27083190529022
 20
50.56183085409824
 30
0.0
 10
78.3375964718841
 20
50.82564314307641
 30
0.0
 10
78.47493020847762
 20
51.36346873697117
 30
0.0
 10
78.54549937847455
 20
51.6374820418877
 30
0.0
 10
78.69028818323265
 20
52.19510402707142
 30
0.0
 10
78.76450781799393
 20
52.47871270733862
 30
0.0
 10
78.91644341364112
 20
53.05491980263599
 30
0.0
 10
78.99415937452726
 20
53.34751821766617
 30
0.0
 10
79.15293348378555
 20
53.94109914190173
 30
0.0
 10
79.23368328619834
 20
54.24096064772466
 30
0.0
 10
79.39754490674761
 20
54.84563047639601
 30
0.0
 10
79.48065672488391
 20
55.15043879924445
 30
0.0
 10
79.64887889703654
 20
55.76380699158253
 30
0.0
 10
79.73401666239643
 20
56.07246961198789
 30
0.0
 10
79.86304623303425
 20
56.53777673558899
 30
0.0
 10
79.90627657701322
 20
56.69326464228816
 30
0.0
 10
79.9931420564493
 20
57.00490242112408
 30
0.0
 10
80.03677719190644
 20
57.16105229326077
 30
0.0
 10
80.12204928103472
 20
57.46545595307137
 30
0.0
 10
80.1638132825358
 20
57.61420430220893
 30
0.0
 10
80.24793730916896
 20
57.91315424826365
 30
0.0
 10
80.29029733430099
 20
58.06335584518094
 30
0.0
 10
80.41823142396493
 20
58.51600739506529
 30
0.0
 10
80.50465950276464
 20
58.82050410716486
 30
0.0
 10
80.76703962680504
 20
59.7411163796972
 30
0.0
 10
80.94608689968952
 20
60.36435476258206
 30
0.0
 10
81.21938714938432
 20
61.30894816760357
 30
0.0
 10
81.31129285252753
 20
61.62549964227693
 30
0.0
 10
81.4964590273981
 20
62.26121082238384
 30
0.0
 10
81.58971949912541
 20
62.58037052781732
 30
0.0
 10
81.77733873992504
 20
63.22053238753886
 30
0.0
 10
81.87171019592249
 20
63.54155427766628
 30
0.0
 10
82.01392273691415
 20
64.02386663192932
 30
0.0
 10
82.06142455808302
 20
64.18472840810671
 30
0.0
 10
82.1328578176162
 20
64.42627402248502
 30
0.0
 10
82.15680956084081
 20
64.50720414590869
 30
0.0
 10
82.20458692833365
 20
64.66852061637826
 30
0.0
 10
82.22841255260188
 20
64.74890696342419
 30
0.0
 10
82.25197140120017
 20
64.82833461546147
 30
0.0
  0
SPLINE
  5
129
330
1F
100
AcDbEntity
  8
0
  6
Continuous
 62
     7
370
    25
100
AcDbSpline
210
0.0
220
0.0
230
1.0
 70
     8
 71
     3
 72
    16
 73
    12
 74
     0
 42
0.00000001
 43
0.00000001
 40
0.0
 40
0.0
 40
0.0
 40
0.0
 40
0.2500000000000001
 40
0.2500000000000001
 40
0.375
 40
0.375
 40
0.5
 40
0.5
 40
0.75
 40
0.75
 40
1.0
 40
1.0
 40
1.0
 40
1.0
 10
82.25197140120022
 20
64.82833461546142
 30
0.0
 10
118.7992664436838
 20
64.93258034077171
 30
0.0
 10
155.3758652345447
 20
65.00442254021699
 30
0.0
 10
210.288640839089
 20
65.07099404844843
 30
0.0
 10
228.5913067662201
 20
65.0864897974871
 30
0.0
 10
265.1895225783197
 20
65.10660996302927
 30
0.0
 10
283.4856798023388
 20
65.11131091345048
 30
0.0
 10
338.3651726178282
 20
65.11127205240244
 30
0.0
 10
374.9394640783093
 20
65.09307357836921
 30
0.0
 10
448.06528106634
 20
65.00434753412628
 30
0.0
 10
484.6168972007573
 20
64.93256299669129
 30
0.0
 10
521.158111617668
 20
64.82833461546142
 30
0.0
  0
SPLINE
  5
12A
330
1F
100
AcDbEntity
  8
0
  6
Continuous
 62
     7
370
    25
100
AcDbSpline
210
0.0
220
0.0
230
1.0
 70
     8
 71
     3
 72
    35
 73
    31
 74
     0
 42
0.00000001
 43
0.00000001
 40
0.0
 40
0.0
 40
0.0
 40
0.0
 40
0.0138727075526117
 40
0.0271249104991367
 40
0.0397565983100271
 40
0.0517677616810748
 40
0.0631583924608466
 40
0.073928483588196
 40
0.0840780290419402
 40
0.0936070238056718
 40
0.1025154638519056
 40
0.1108033461522382
 40
0.1184706687236319
 40
0.1255174307274239
 40
0.1911763228711414
 40
0.2497579392451899
 40
0.3146317494796151
 40
0.3753825344060357
 40
0.4994222853130132
 40
0.563069951301554
 40
0.6248091311864808
 40
0.6878720548582495
 40
0.7497744156828047
 40
0.8119353057987377
 40
0.8732913907408305
 40
0.8987397403945828
 40
0.9241316503909657
 40
0.949470239124763
 40
0.9747586399361468
 40
1.0
 40
1.0
 40
1.0
 40
1.0
 10
521.1581116176678
 20
64.82833461546147
 30
0.0
 10
521.2064307699014
 20
64.6652543601473
 30
0.0
 10
521.3009078339326
 20
64.3463881753888
 30
0.0
 10
521.438500864285
 20
63.88001919290631
 30
0.0
 10
521.5690551660028
 20
63.43633146380554
 30
0.0
 10
521.6925894098742
 20
63.01538162439668
 30
0.0
 10
521.8091940405311
 20
62.61712283745987
 30
0.0
 10
521.9189366984826
 20
62.24149850138009
 30
0.0
 10
522.0218857800954
 20
61.88842486282883
 30
0.0
 10
522.1181043115122
 20
61.55780097648236
 30
0.0
 10
522.2076523914631
 20
61.24951131095654
 30
0.0
 10
522.2905834613078
 20
60.96343070198415
 30
0.0
 10
522.3669557637337
 20
60.69942549164789
 30
0.0
 10
522.632475574897
 20
59.77913862285369
 30
0.0
 10
523.056389392876
 20
58.29340232378078
 30
0.0
 10
523.6383247053811
 20
56.21648876260851
 30
0.0
 10
524.1715412959927
 20
54.26674351692101
 30
0.0
 10
524.8417750338882
 20
51.74918743776139
 30
0.0
 10
525.423207630945
 20
49.44904987920254
 30
0.0
 10
525.90059804416
 20
47.41985161011403
 30
0.0
 10
526.2051698180517
 20
46.03926067687669
 30
0.0
 10
526.4477463584848
 20
44.83598637556696
 30
0.0
 10
526.6296152531697
 20
43.80752053587261
 30
0.0
 10
526.7475254444835
 20
42.97382802211924
 30
0.0
 10
526.791492447477
 20
42.45950164337625
 30
0.0
 10
526.7973362517635
 20
42.15767809433849
 30
0.0
 10
526.7906047469097
 20
41.98683432525971
 30
0.0
 10
526.7729935567409
 20
41.85150023852768
 30
0.0
 10
526.7455625144863
 20
41.74852762103301
 30
0.0
 10
526.7183952530019
 20
41.70929273519883
 30
0.0
 10
526.7048242679587
 20
41.68969355516614
 30
0.0
  0
SPLINE
  5
12B
330
1F
100
AcDbEntity
  8
0
  6
Continuous
 62
     7
370
    25
100
AcDbSpline
210
0.0
220
0.0
230
1.0
 70
     8
 71
     3
 72
    34
 73
    30
 74
     0
 42
0.00000001
 43
0.00000001
 40
0.0
 40
0.0
 40
0.0
 40
0.0
 40
0.0126157091115069
 40
0.0252427348409532
 40
0.0378814718116897
 40
0.0505323138503479
 40
0.0631956539521381
 40
0.0758718842460066
 40
0.088561395959849
 40
0.1012645793859899
 40
0.1139818238465267
 40
0.1267135176590763
 40
0.1880705214024012
 40
0.2502298459253738
 40
0.3121332871017013
 40
0.3751948233452594
 40
0.4369350710620715
 40
0.5005815844253184
 40
0.6246213380518799
 40
0.6853731012406309
 40
0.7502459141927547
 40
0.8088279634141805
 40
0.874486313792508
 40
0.8892461782953038
 40
0.9064697713712586
 40
0.926157037429189
 40
0.9483078997724946
 40
0.9729222606497039
 40
1.0
 40
1.0
 40
1.0
 40
1.0
 10
544.4796889414371
 20
59.4617458911105
 30
0.0
 10
544.4695458913448
 20
59.45353225099858
 30
0.0
 10
544.4492506925814
 20
59.43709760292684
 30
0.0
 10
544.407790818302
 20
59.4157674204833
 30
0.0
 10
544.3582457681581
 20
59.3968712700795
 30
0.0
 10
544.2998220245001
 20
59.38066161108166
 30
0.0
 10
544.2327331393752
 20
59.36708791535087
 30
0.0
 10
544.1569264500137
 20
59.35618096938974
 30
0.0
 10
544.0724244286168
 20
59.34794987243872
 30
0.0
 10
543.9792343360231
 20
59.34240920025416
 30
0.0
 10
543.8773678637767
 20
59.3395734611965
 30
0.0
 10
543.6262036599643
 20
59.33929747388081
 30
0.0
 10
543.1434746538431
 20
59.36729988911657
 30
0.0
 10
542.2935631966084
 20
59.46914967138881
 30
0.0
 10
541.2494200306412
 20
59.63550113556265
 30
0.0
 10
540.0312996184291
 20
59.8634206003068
 30
0.0
 10
538.6366764166264
 20
60.15414084132745
 30
0.0
 10
536.5902803168361
 20
60.61459716216341
 30
0.0
 10
534.2752379296765
 20
61.18139231685426
 30
0.0
 10
531.7452553324538
 20
61.83947739361584
 30
0.0
 10
529.7876502417272
 20
62.36503304482297
 30
0.0
 10
527.704049881036
 20
62.94050581971405
 30
0.0
 10
526.1271870812396
 20
63.38553422504392
 30
0.0
 10
525.005509646498
 20
63.70683582971331
 30
0.0
 10
524.4090548681288
 20
63.87861643247911
 30
0.0
 10
523.723874533748
 20
64.07685569192905
 30
0.0
 10
522.9491240292048
 20
64.30217814654213
 30
0.0
 10
522.0844840928025
 20
64.55496064367425
 30
0.0
 10
521.4765592945635
 20
64.73436020605722
 30
0.0
 10
521.1581116176682
 20
64.82833461546178
 30
0.0
  0
SPLINE
  5
12C
330
1F
100
AcDbEntity
  8
0
  6
Continuous
 62
     7
370
    25
100
AcDbSpline
210
0.0
220
0.0
230
1.0
 70
     8
 71
     3
 72
    16
 73
    12
 74
     0
 42
0.00000001
 43
0.00000001
 40
0.0
 40
0.0
 40
0.0
 40
0.0
 40
0.25
 40
0.25
 40
0.375
 40
0.375
 40
0.5
 40
0.5
 40
0.75
 40
0.75
 40
1.0
 40
1.0
 40
1.0
 40
1.0
 10
521.158111617668
 20
64.82833461546153
 30
0.0
 10
521.0707401068495
 20
91.66840497657324
 30
0.0
 10
521.0011399820445
 20
118.5270651838033
 30
0.0
 10
520.9226299151833
 20
158.8446876444224
 30
0.0
 10
520.9007429109571
 20
172.288982036332
 30
0.0
 10
520.8647892909786
 20
199.176521525354
 30
0.0
 10
520.8507153083148
 20
212.6211465678996
 30
0.0
 10
520.818292501683
 20
252.9576893243845
 30
0.0
 10
520.8093314536296
 20
279.852292486204
 30
0.0
 10
520.8081273916273
 20
333.6489773742181
 30
0.0
 10
520.8158210558249
 20
360.5510604535185
 30
0.0
 10
520.8357247640823
 20
387.456742835509
 30
0.0
  0
SPLINE
  5
12D
330
1F
100
AcDbEntity
  8
0
  6
Continuous
 62
     7
370
    25
100
AcDbSpline
210
0.0
220
0.0
230
1.0
 70
     8
 71
     3
 72
    84
 73
    80
 74
     0
 42
0.00000001
 43
0.00000001
 40
0.0
 40
0.0
 40
0.0
 40
0.0
 40
0.0068437764700189
 40
0.0068437764700189
 40
0.0136875529400379
 40
0.0136875529400379
 40
0.0273751058800757
 40
0.0273751058800757
 40
0.0547502117601515
 40
0.0547502117601515
 40
0.0821253176402272
 40
0.0821253176402272
 40
0.109500423520303
 40
0.109500423520303
 40
0.1642506352804545
 40
0.1642506352804545
 40
0.1916257411605302
 40
0.1916257411605302
 40
0.205313294100568
 40
0.205313294100568
 40
0.2190008470406059
 40
0.2190008470406059
 40
0.2334539440168677
 40
0.2334539440168677
 40
0.2479070409931297
 40
0.2479070409931297
 40
0.2768132349456534
 40
0.2768132349456534
 40
0.3057194288981772
 40
0.3057194288981772
 40
0.334625622850701
 40
0.334625622850701
 40
0.3635318168032247
 40
0.3635318168032247
 40
0.3924380107557485
 40
0.3924380107557485
 40
0.4213442047082723
 40
0.4213442047082723
 40
0.450250398660796
 40
0.450250398660796
 40
0.4663209660100682
 40
0.4663209660100682
 40
0.4823915333593406
 40
0.4823915333593406
 40
0.5145326680578852
 40
0.5145326680578852
 40
0.5466738027564298
 40
0.5466738027564298
 40
0.5788149374549745
 40
0.5788149374549745
 40
0.6109560721535192
 40
0.6109560721535192
 40
0.6430972068520638
 40
0.6430972068520638
 40
0.6752383415506085
 40
0.6752383415506085
 40
0.7073794762491531
 40
0.7073794762491531
 40
0.716523867616367
 40
0.716523867616367
 40
0.725668258983581
 40
0.725668258983581
 40
0.743957041718009
 40
0.743957041718009
 40
0.7805346071868648
 40
0.7805346071868648
 40
0.8171121726557207
 40
0.8171121726557207
 40
0.8536897381245765
 40
0.8536897381245765
 40
0.8902673035934324
 40
0.8902673035934324
 40
0.9268448690622882
 40
0.9268448690622882
 40
0.9634224345311442
 40
0.9634224345311442
 40
0.9817112172655721
 40
0.9817112172655721
 40
1.0
 40
1.0
 40
1.0
 40
1.0
 10
520.8357247640822
 20
387.456742835509
 30
0.0
 10
520.9153001432052
 20
387.4822160083878
 30
0.0
 10
520.9958371853571
 20
387.5079957442648
 30
0.0
 10
521.1574547039581
 20
387.5597267427452
 30
0.0
 10
521.2385351804072
 20
387.5856780053487
 30
0.0
 10
521.4805219235591
 20
387.6631266843443
 30
0.0
 10
521.6416727929651
 20
387.7146987204974
 30
0.0
 10
522.1248580787505
 20
387.8693142164635
 30
0.0
 10
522.4464620702817
 20
387.9722046967943
 30
0.0
 10
523.0878039183347
 20
388.1773462870707
 30
0.0
 10
523.407561511163
 20
388.2796113022517
 30
0.0
 10
524.0444972261719
 20
388.4832542092897
 30
0.0
 10
524.3616753483523
 20
388.5846321011465
 30
0.0
 10
525.3082112965449
 20
388.8870217466154
 30
0.0
 10
525.9328249513947
 20
389.0863562187639
 30
0.0
 10
526.8557081181885
 20
389.3803789764894
 30
0.0
 10
527.1609964643187
 20
389.4775565982968
 30
0.0
 10
527.6148973328767
 20
389.621893701437
 30
0.0
 10
527.7655256806231
 20
389.6697678475552
 30
0.0
 10
528.0653513948309
 20
389.7650089660316
 30
0.0
 10
528.2145487612922
 20
389.8123759383897
 30
0.0
 10
528.519727562144
 20
389.9092061682937
 30
0.0
 10
528.6762104620898
 20
389.9588254177654
 30
0.0
 10
528.9885419853078
 20
390.0577961433535
 30
0.0
 10
529.14439060858
 20
390.1071476194699
 30
0.0
 10
529.6108063702467
 20
390.2547376084709
 30
0.0
 10
529.9202434004914
 20
390.3525116820071
 30
0.0
 10
530.5351508091697
 20
390.5464865011351
 30
0.0
 10
530.8407185747457
 20
390.6427178933289
 30
0.0
 10
531.4468524224119
 20
390.8332542711728
 30
0.0
 10
531.747418504502
 20
390.9275592568227
 30
0.0
 10
532.3423191792375
 20
391.1138284497754
 30
0.0
 10
532.6356036118018
 20
391.2054569055722
 30
0.0
 10
533.2132441162383
 20
391.3855093107901
 30
0.0
 10
533.4976001881105
 20
391.4739332602111
 30
0.0
 10
534.0567874200772
 20
391.6473844276609
 30
0.0
 10
534.3316185801716
 20
391.7324116456896
 30
0.0
 10
534.8711594374976
 20
391.8988771253382
 30
0.0
 10
535.135869134729
 20
391.980315386958
 30
0.0
 10
535.5394073559253
 20
392.1040880500897
 30
0.0
 10
535.6823765861474
 20
392.1478644823425
 30
0.0
 10
535.9658258037113
 20
392.2345027385904
 30
0.0
 10
536.106305791053
 20
392.2773645625855
 30
0.0
 10
536.5239329265894
 20
392.4045518897131
 30
0.0
 10
536.7972672482946
 20
392.4874792479881
 30
0.0
 10
537.3333472228315
 20
392.6494656717372
 30
0.0
 10
537.5960829264252
 20
392.7285220929606
 30
0.0
 10
538.1103377685863
 20
392.8825706266026
 30
0.0
 10
538.3621605903821
 20
392.9576568244977
 30
0.0
 10
538.8527128894204
 20
393.1031848878596
 30
0.0
 10
539.0905381121942
 20
393.1733441370238
 30
0.0
 10
539.5509865308701
 20
393.3083864560447
 30
0.0
 10
539.7736097267722
 20
393.3732695259014
 30
0.0
 10
540.2033539183234
 20
393.4976928720329
 30
0.0
 10
540.4104749139727
 20
393.5572331483078
 30
0.0
 10
540.8089145316376
 20
393.6709042930015
 30
0.0
 10
541.0002331536531
 20
393.7250351614202
 30
0.0
 10
541.2356414229878
 20
393.7910496681192
 30
0.0
 10
541.2870768849283
 20
393.805435125645
 30
0.0
 10
541.3885511616253
 20
393.8337385407997
 30
0.0
 10
541.4385899763818
 20
393.8476564984285
 30
0.0
 10
541.5866328557565
 20
393.8887164470819
 30
0.0
 10
541.6825633554806
 20
393.9151645138734
 30
0.0
 10
541.9622318421276
 20
393.9917916222167
 30
0.0
 10
542.1380584197782
 20
394.0393167927512
 30
0.0
 10
542.467895718444
 20
394.1270935943199
 30
0.0
 10
542.6208436149021
 20
394.1670312850513
 30
0.0
 10
542.903708014497
 20
394.2392985016014
 30
0.0
 10
543.0336245176338
 20
394.2716280274203
 30
0.0
 10
543.2713362430143
 20
394.3289721693392
 30
0.0
 10
543.3791847976225
 20
394.3540021367962
 30
0.0
 10
543.5725399640899
 20
394.3966698808627
 30
0.0
 10
543.6580465759489
 20
394.4143076574722
 30
0.0
 10
543.8063905303319
 20
394.4420830360013
 30
0.0
 10
543.8691398259765
 20
394.4521892967051
 30
0.0
 10
543.9447438813445
 20
394.4612650708909
 30
0.0
 10
543.9668585851174
 20
394.4632763928079
 30
0.0
 10
544.004683719
 20
394.465202585347
 30
0.0
 10
544.02039414911
 20
394.4651174559692
 30
0.0
 10
544.0327869535736
 20
394.4639498114416
 30
0.0
  0
SPLINE
  5
12E
330
1F
100
AcDbEntity
  8
0
  6
Continuous
 62
     7
370
    25
100
AcDbSpline
210
0.0
220
0.0
230
1.0
 70
     8
 71
     3
 72
     8
 73
     4
 74
     0
 42
0.00000001
 43
0.00000001
 40
0.0
 40
0.0
 40
0.0
 40
0.0
 40
1.0
 40
1.0
 40
1.0
 40
1.0
 10
544.4904272318154
 20
59.472188679245
 30
0.0
 10
544.4870917477211
 20
59.46870762722408
 30
0.0
 10
544.4835122826328
 20
59.46522665005968
 30
0.0
 10
544.4796889414371
 20
59.46174589111053
 30
0.0
  0
SPLINE
  5
12F
330
1F
100
AcDbEntity
  8
0
  6
Continuous
 62
     7
370
    25
100
AcDbSpline
210
0.0
220
0.0
230
1.0
 70
     8
 71
     3
 72
    13
 73
     9
 74
     0
 42
0.00000001
 43
0.00000001
 40
0.0
 40
0.0
 40
0.0
 40
0.0
 40
0.0625
 40
0.0625
 40
0.25
 40
0.96875
 40
0.96875
 40
1.0
 40
1.0
 40
1.0
 40
1.0
 10
76.64696834535467
 20
411.7322791109244
 30
0.0
 10
76.64816578277134
 20
411.7346088601212
 30
0.0
 10
76.64936414498186
 20
411.7369051740844
 30
0.0
 10
76.65416118159929
 20
411.7459565499883
 30
0.0
 10
76.67158945639463
 20
411.7773118431852
 30
0.0
 10
76.68918874724606
 20
411.8016081503692
 30
0.0
 10
76.70382172801204
 20
411.8170270378419
 30
0.0
 10
76.70443155882367
 20
411.817660998006
 30
0.0
 10
76.7050415094338
 20
411.8182864603455
 30
0.0
  0
SPLINE
  5
130
330
1F
100
AcDbEntity
  8
0
  6
Continuous
 62
     7
370
    25
100
AcDbSpline
210
0.0
220
0.0
230
1.0
 70
     8
 71
     3
 72
     8
 73
     4
 74
     0
 42
0.00000001
 43
0.00000001
 40
0.0
 40
0.0
 40
0.0
 40
0.0
 40
1.0
 40
1.0
 40
1.0
 40
1.0
 10
526.7050415094341
 20
411.8182864603455
 30
0.0
 10
526.7244115882694
 20
411.7983347693643
 30
0.0
 10
526.7437790831
 20
411.7696556370459
 30
0.0
 10
526.7631146458567
 20
411.7322791108159
 30
0.0
  0
SPLINE
  5
131
330
1F
100
AcDbEntity
  8
0
  6
Continuous
 62
     7
370
    25
100
AcDbSpline
210
0.0
220
0.0
230
1.0
 70
     8
 71
     3
 72
    34
 73
    30
 74
     0
 42
0.00000001
 43
0.00000001
 40
0.0
 40
0.0
 40
0.0
 40
0.0
 40
0.0126124775876472
 40
0.025236713981908
 40
0.0378731540172062
 40
0.0505222415573066
 40
0.063184419450566
 40
0.075860129485391
 40
0.0885498123460019
 40
0.1012539075683056
 40
0.1139728534961197
 40
0.1267070872375554
 40
0.1880523927330428
 40
0.2502135573609355
 40
0.3120969390754163
 40
0.3751597279899229
 40
0.4368870040486731
 40
0.5005614422771544
 40
0.6246081051805303
 40
0.685343175074832
 40
0.7502288549882434
 40
0.8088125090382167
 40
0.8744891099926974
 40
0.8892443341209815
 40
0.9064649564832066
 40
0.9261509222512021
 40
0.9483021545368359
 40
0.9729185544913447
 40
1.0
 40
1.0
 40
1.0
 40
1.0
 10
526.7631146458506
 20
411.732279110816
 30
0.0
 10
526.7707038882494
 20
411.7161564994666
 30
0.0
 10
526.7858894486147
 20
411.6838962454097
 30
0.0
 10
526.8050950411933
 20
411.624425451893
 30
0.0
 10
526.821682874633
 20
411.5568198031507
 30
0.0
 10
526.8353827536785
 20
411.4802872621172
 30
0.0
 10
526.8462504200677
 20
411.3950485909215
 30
0.0
 10
526.85425415223
 20
411.3010568777561
 30
0.0
 10
526.8593855740597
 20
411.1983407933001
 30
0.0
 10
526.8616304242362
 20
411.0869138818845
 30
0.0
 10
526.8609745426396
 20
410.9667937116789
 30
0.0
 10
526.8528740983203
 20
410.6742080132773
 30
0.0
 10
526.8097635056913
 20
410.1267383610123
 30
0.0
 10
526.6831895841717
 20
409.1906328677437
 30
0.0
 10
526.4879928664626
 20
408.0623387003863
 30
0.0
 10
526.2278119182705
 20
406.7643100966444
 30
0.0
 10
525.9012804999976
 20
405.2936463881873
 30
0.0
 10
525.3898672726838
 20
403.1542869280485
 30
0.0
 10
524.7677355773094
 20
400.7595158016605
 30
0.0
 10
524.05147995785
 20
398.1648042463693
 30
0.0
 10
523.4820321668593
 20
396.1672594583742
 30
0.0
 10
522.8607583415554
 20
394.0503881393265
 30
0.0
 10
522.3818960585044
 20
392.4551836448403
 30
0.0
 10
522.0368334020756
 20
391.3233898899168
 30
0.0
 10
521.8525355228177
 20
390.7223320822291
 30
0.0
 10
521.6399920497012
 20
390.0325681911925
 30
0.0
 10
521.3986003860955
 20
389.253578502226
 30
0.0
 10
521.1280021006897
 20
388.3852674168842
 30
0.0
 10
520.9361990469438
 20
387.7759357038855
 30
0.0
 10
520.835724764082
 20
387.456742835509
 30
0.0
  0
SPLINE
  5
132
330
1F
100
AcDbEntity
  8
0
  6
Continuous
 62
     7
370
    25
100
AcDbSpline
210
0.0
220
0.0
230
1.0
 70
     8
 71
     3
 72
    22
 73
    18
 74
     0
 42
0.00000001
 43
0.00000001
 40
0.0
 40
0.0
 40
0.0
 40
0.0
 40
0.125
 40
0.125
 40
0.2500000000000001
 40
0.2500000000000001
 40
0.3749999999999999
 40
0.3749999999999999
 40
0.4999999999999999
 40
0.4999999999999999
 40
0.6249999999999999
 40
0.6249999999999999
 40
0.7499999999999999
 40
0.7499999999999999
 40
0.875
 40
0.875
 40
1.0
 40
1.0
 40
1.0
 40
1.0
 10
520.8357247640821
 20
387.456742835509
 30
0.0
 10
502.5979220055209
 20
387.399187307825
 30
0.0
 10
484.3501062625378
 20
387.3505543237275
 30
0.0
 10
447.8432904277333
 20
387.2753486102878
 30
0.0
 10
429.5853989920263
 20
387.2487974569032
 30
0.0
 10
393.0597915723737
 20
387.2251211427474
 30
0.0
 10
374.7921356461662
 20
387.2296652015984
 30
0.0
 10
338.2444871725705
 20
387.2634632955571
 30
0.0
 10
319.9639749580357
 20
387.2910530104835
 30
0.0
 10
283.3878050978979
 20
387.2910023239814
 30
0.0
 10
265.1096440885139
 20
387.263392957183
 30
0.0
 10
228.5688060785527
 20
387.2296384068256
 30
0.0
 10
210.3058724604616
 20
387.2251291515424
 30
0.0
 10
173.7917863101384
 20
387.2488396097314
 30
0.0
 10
155.5407058294927
 20
387.2753948839674
 30
0.0
 10
119.0494241525507
 20
387.3505835363199
 30
0.0
 10
100.8092492039682
 20
387.3991964970201
 30
0.0
 10
82.574358254786
 20
387.456742835509
 30
0.0
  0
SPLINE
  5
133
330
1F
100
AcDbEntity
  8
0
  6
Continuous
 62
     7
370
    25
100
AcDbSpline
210
0.0
220
0.0
230
1.0
 70
     8
 71
     3
 72
    84
 73
    80
 74
     0
 42
0.00000001
 43
0.00000001
 40
0.0
 40
0.0
 40
0.0
 40
0.0
 40
0.006843776292818
 40
0.006843776292818
 40
0.0136875525856359
 40
0.0136875525856359
 40
0.0273751051712718
 40
0.0273751051712718
 40
0.0547502103425438
 40
0.0547502103425438
 40
0.0821253155138157
 40
0.0821253155138157
 40
0.1095004206850876
 40
0.1095004206850876
 40
0.1642506310276313
 40
0.1642506310276313
 40
0.1916257361989031
 40
0.1916257361989031
 40
0.205313288784539
 40
0.205313288784539
 40
0.2190008413701751
 40
0.2190008413701751
 40
0.2334539381301504
 40
0.2334539381301504
 40
0.2479070348901258
 40
0.2479070348901258
 40
0.2768132284100764
 40
0.2768132284100764
 40
0.305719421930027
 40
0.305719421930027
 40
0.3346256154499776
 40
0.3346256154499776
 40
0.3635318089699282
 40
0.3635318089699282
 40
0.3924380024898788
 40
0.3924380024898788
 40
0.4213441960098294
 40
0.4213441960098294
 40
0.4502503895297801
 40
0.4502503895297801
 40
0.4663209570201247
 40
0.4663209570201247
 40
0.4823915245104692
 40
0.4823915245104692
 40
0.5145326594911582
 40
0.5145326594911582
 40
0.5466737944718473
 40
0.5466737944718473
 40
0.5788149294525363
 40
0.5788149294525363
 40
0.6109560644332254
 40
0.6109560644332254
 40
0.6430971994139144
 40
0.6430971994139144
 40
0.6752383343946035
 40
0.6752383343946035
 40
0.7073794693752925
 40
0.7073794693752925
 40
0.7165238609573146
 40
0.7165238609573146
 40
0.7256682525393368
 40
0.7256682525393368
 40
0.7439570357033809
 40
0.7439570357033809
 40
0.7805346020314694
 40
0.7805346020314694
 40
0.8171121683595578
 40
0.8171121683595578
 40
0.8536897346876462
 40
0.8536897346876462
 40
0.8902673010157347
 40
0.8902673010157347
 40
0.9268448673438231
 40
0.9268448673438231
 40
0.9634224336719116
 40
0.9634224336719116
 40
0.9817112168359557
 40
0.9817112168359557
 40
1.0
 40
1.0
 40
1.0
 40
1.0
 10
82.57435825478588
 20
387.456742835509
 30
0.0
 10
82.54916452245281
 20
387.5365750786106
 30
0.0
 10
82.52368516433623
 20
387.6173899535273
 30
0.0
 10
82.47259266533635
 20
387.7796009812104
 30
0.0
 10
82.44697952445318
 20
387.8609971339767
 30
0.0
 10
82.37059563085397
 20
388.1039815303785
 30
0.0
 10
82.31980491316875
 20
388.2658692860882
 30
0.0
 10
82.16774908869844
 20
388.7514818930341
 30
0.0
 10
82.06685209178144
 20
389.0749924358613
 30
0.0
 10
81.86626673313701
 20
389.7207197034207
 30
0.0
 10
81.76656505973779
 20
390.0429567541179
 30
0.0
 10
81.56861048699504
 20
390.6854164629752
 30
0.0
 10
81.47035758765159
 20
391.005639121135
 30
0.0
 10
81.17817219402023
 20
391.9621436672491
 30
0.0
 10
80.98674317630989
 20
392.5945132287408
 30
0.0
 10
80.7061700923724
 20
393.5306349947492
 30
0.0
 10
80.61374097123513
 20
393.8406036922357
 30
0.0
 10
80.47690763225413
 20
394.3019095826643
 30
0.0
 10
80.43159824304792
 20
394.455070353507
 30
0.0
 10
80.34161082595415
 20
394.7600862900874
 30
0.0
 10
80.29693279806665
 20
394.9119414558252
 30
0.0
 10
80.20575561396059
 20
395.222710523101
 30
0.0
 10
80.15911881848281
 20
395.3821441921633
 30
0.0
 10
80.06627079238615
 20
395.7005362090785
 30
0.0
 10
80.02005956176744
 20
395.8594945569313
 30
0.0
 10
79.88212656967286
 20
396.3354775717012
 30
0.0
 10
79.79110550795887
 20
396.6516102098302
 30
0.0
 10
79.6112644637536
 20
397.2805418254591
 30
0.0
 10
79.52241675953087
 20
397.5934411015905
 30
0.0
 10
79.34726380335466
 20
398.2148595647928
 30
0.0
 10
79.26095855140119
 20
398.523378751864
 30
0.0
 10
79.09128731627307
 20
399.1347900112525
 30
0.0
 10
79.00822916951877
 20
399.4366041843096
 30
0.0
 10
78.84583038041649
 20
400.0318233711558
 30
0.0
 10
78.76648973806849
 20
400.3252283849449
 30
0.0
 10
78.6116885205655
 20
400.9030030072606
 30
0.0
 10
78.53622794541049
 20
401.1873726157873
 30
0.0
 10
78.3893494250803
 20
401.7464501815844
 30
0.0
 10
78.31793147990501
 20
402.0211581388546
 30
0.0
 10
78.21007985721346
 20
402.4405878360038
 30
0.0
 10
78.17207398820453
 20
402.5893179703904
 30
0.0
 10
78.09714111969008
 20
402.8844550608045
 30
0.0
 10
78.06021412018454
 20
403.0308620168319
 30
0.0
 10
77.95107851550715
 20
403.4665200121877
 30
0.0
 10
77.88051530417394
 20
403.7522081787899
 30
0.0
 10
77.74392107618976
 20
404.3136669570596
 30
0.0
 10
77.67789199809383
 20
404.5894269115173
 30
0.0
 10
77.55056959414297
 20
405.1304088883084
 30
0.0
 10
77.48919934440191
 20
405.3959517650461
 30
0.0
 10
77.3717014478294
 20
405.9145495351511
 30
0.0
 10
77.31580457924665
 20
406.1666483119837
 30
0.0
 10
77.20976080779751
 20
406.6561242866524
 30
0.0
 10
77.15961390493115
 20
406.8935014844887
 30
0.0
 10
77.06511587122394
 20
407.3532129386094
 30
0.0
 10
77.02076474038316
 20
407.5755471948938
 30
0.0
 10
76.93790405703649
 20
408.0048514033546
 30
0.0
 10
76.89939450453048
 20
408.2118213555311
 30
0.0
 10
76.85370989301244
 20
408.4676016184047
 30
0.0
 10
76.84383908554604
 20
408.5235612676427
 30
0.0
 10
76.82458964918409
 20
408.6341090135451
 30
0.0
 10
76.81521102028849
 20
408.6886971102097
 30
0.0
 10
76.78780783770989
 20
408.8504272268553
 30
0.0
 10
76.770515988135
 20
408.9555350734888
 30
0.0
 10
76.72152674585747
 20
409.2629071640986
 30
0.0
 10
76.69267581431527
 20
409.4574550022764
 30
0.0
 10
76.642691518372
 20
409.8251845309551
 30
0.0
 10
76.62174124920685
 20
409.997172169858
 30
0.0
 10
76.587715579285
 20
410.3183872117163
 30
0.0
 10
76.57464017852833
 20
410.4676146146717
 30
0.0
 10
76.55615535621685
 20
410.7443031995606
 30
0.0
 10
76.55073560521453
 20
410.8718227596174
 30
0.0
 10
76.54777510606431
 20
411.1050105808513
 30
0.0
 10
76.55023435791647
 20
411.2106788420285
 30
0.0
 10
76.56326554702275
 20
411.3999622313994
 30
0.0
 10
76.57389435667066
 20
411.4835149469909
 30
0.0
 10
76.59633856461507
 20
411.5907435808418
 30
0.0
 10
76.60490346617533
 20
411.6234697188694
 30
0.0
 10
76.62425546225843
 20
411.68264401993
 30
0.0
 10
76.63504255678127
 20
411.7090921829632
 30
0.0
 10
76.64696834535462
 20
411.7322791109244
 30
0.0
  0
SPLINE
  5
134
330
1F
100
AcDbEntity
  8
0
  6
Continuous
 62
     7
370
    25
100
AcDbSpline
210
0.0
220
0.0
230
1.0
 70
     8
 71
     3
 72
    22
 73
    18
 74
     0
 42
0.00000001
 43
0.00000001
 40
0.0
 40
0.0
 40
0.0
 40
0.0
 40
0.125
 40
0.125
 40
0.25
 40
0.25
 40
0.375
 40
0.375
 40
0.5
 40
0.5
 40
0.625
 40
0.625
 40
0.75
 40
0.75
 40
0.875
 40
0.875
 40
1.0
 40
1.0
 40
1.0
 40
1.0
 10
76.70525875516942
 20
41.68969355518165
 30
0.0
 10
75.54433806352179
 20
41.6933362184464
 30
0.0
 10
74.38351667744547
 20
41.81080910435611
 30
0.0
 10
72.1061448837696
 20
42.26924399819634
 30
0.0
 10
70.98966307593507
 20
42.61019844381131
 30
0.0
 10
68.84372230588565
 20
43.50283464682736
 30
0.0
 10
67.81431903788359
 20
44.05449652448038
 30
0.0
 10
65.88203238551493
 20
45.3475973188289
 30
0.0
 10
64.97919985807316
 20
46.08900419648629
 30
0.0
 10
63.33470560124687
 20
47.73323826380219
 30
0.0
 10
62.59308661770496
 20
48.63602271429887
 30
0.0
 10
61.2994057389803
 20
50.56837904302988
 30
0.0
 10
60.74737589985302
 20
51.59790005978859
 30
0.0
 10
59.85386209559069
 20
53.74423753265434
 30
0.0
 10
59.51239804457775
 20
54.8609982459613
 30
0.0
 10
59.0528218537541
 20
57.13907829480463
 30
0.0
 10
58.93471730661803
 20
58.3003336939911
 30
0.0
 10
58.93039407744838
 20
59.46174589536957
 30
0.0
  0
SPLINE
  5
135
330
1F
100
AcDbEntity
  8
0
  6
Continuous
 62
     7
370
    25
100
AcDbSpline
210
0.0
220
0.0
230
1.0
 70
     8
 71
     3
 72
    30
 73
    26
 74
     0
 42
0.00000001
 43
0.00000001
 40
0.0
 40
0.0
 40
0.0
 40
0.0
 40
0.00390625
 40
0.00390625
 40
0.0625
 40
0.0625
 40
0.125
 40
0.125
 40
0.25
 40
0.25
 40
0.375
 40
0.375
 40
0.5
 40
0.5
 40
0.625
 40
0.625
 40
0.75
 40
0.75
 40
0.875
 40
0.875
 40
0.9375
 40
0.96875
 40
0.998046875
 40
0.998046875
 40
1.0
 40
1.0
 40
1.0
 40
1.0
 10
544.479688941437
 20
59.46174589111045
 30
0.0
 10
544.4795538404634
 20
59.42545174315791
 30
0.0
 10
544.4793076249292
 20
59.38915774940249
 30
0.0
 10
544.4735913677082
 20
58.80846708644735
 30
0.0
 10
544.443246004584
 20
58.26425573708763
 30
0.0
 10
544.3293402809877
 20
57.14463202301906
 30
0.0
 10
544.2423671223061
 20
56.5695583077287
 30
0.0
 10
543.897684982058
 20
54.86099827094865
 30
0.0
 10
543.5562209162584
 20
53.74423750853399
 30
0.0
 10
542.6627071095147
 20
51.59790003729734
 30
0.0
 10
542.1106772684886
 20
50.56837902020133
 30
0.0
 10
540.8169963874874
 20
48.63602269366019
 30
0.0
 10
540.0753774026022
 20
47.73323824401485
 30
0.0
 10
538.4308831439264
 20
46.08900417933601
 30
0.0
 10
537.5280506160657
 20
45.34759730337701
 30
0.0
 10
535.5957639624322
 20
44.05449651192495
 30
0.0
 10
534.56636069526
 20
43.50283463643498
 30
0.0
 10
532.4204199246084
 20
42.61019843632871
 30
0.0
 10
531.3039381664024
 20
42.2692440056405
 30
0.0
 10
529.595909322107
 20
41.92541783255374
 30
0.0
 10
528.7335938805971
 20
41.79540895499436
 30
0.0
 10
527.5935972942361
 20
41.70804112110383
 30
0.0
 10
527.0313309261309
 20
41.6916350156929
 30
0.0
 10
526.7411029989278
 20
41.68983517892435
 30
0.0
 10
526.7229636454327
 20
41.68975047175358
 30
0.0
 10
526.7048242679605
 20
41.68969355516622
 30
0.0
  0
CIRCLE
  5
136
330
1F
100
AcDbEntity
  8
0
  6
Continuous
 62
     7
370
    25
100
AcDbCircle
 10
301.7050415094
 20
309.4721886792
 30
0.0
 40
70.00000000000003
  0
SPLINE
  5
137
330
1F
100
AcDbEntity
  8
0
  6
Continuous
 62
     7
370
    25
100
AcDbSpline
210
0.0
220
0.0
230
1.0
 70
     8
 71
     3
 72
    22
 73
    18
 74
     0
 42
0.00000001
 43
0.00000001
 40
0.0
 40
0.0
 40
0.0
 40
0.0
 40
0.125
 40
0.125
 40
0.25
 40
0.25
 40
0.375
 40
0.375
 40
0.5
 40
0.5
 40
0.625
 40
0.625
 40
0.75
 40
0.75
 40
0.875
 40
0.875
 40
1.0
 40
1.0
 40
1.0
 40
1.0
 10
59.37729606525421
 20
394.4639498391606
 30
0.0
 10
59.38306891748945
 20
395.5891027581019
 30
0.0
 10
59.49922737064772
 20
396.7139002507133
 30
0.0
 10
59.94794847505208
 20
398.9204329149762
 30
0.0
 10
60.28050257418415
 20
400.0021043236484
 30
0.0
 10
61.14948041109847
 20
402.0813908439404
 30
0.0
 10
61.68588474996034
 20
403.0789547620003
 30
0.0
 10
62.94227559927707
 20
404.9521774613364
 30
0.0
 10
63.66223202577687
 20
405.8277895210376
 30
0.0
 10
65.25843190759551
 20
407.4238652693608
 30
0.0
 10
66.13463584647272
 20
408.1442894445681
 30
0.0
 10
68.01007944679988
 20
409.402657637892
 30
0.0
 10
69.0092723265866
 20
409.9405715182573
 30
0.0
 10
71.0927919958258
 20
410.8135528939655
 30
0.0
 10
72.17706751587083
 20
411.1486008943845
 30
0.0
 10
74.38968479338304
 20
411.6031996391423
 30
0.0
 10
75.51798698910129
 20
411.722741860397
 30
0.0
 10
76.64696834535467
 20
411.7322791109244
 30
0.0
  0
SPLINE
  5
138
330
1F
100
AcDbEntity
  8
0
  6
Continuous
 62
     7
370
    25
100
AcDbSpline
210
0.0
220
0.0
230
1.0
 70
     8
 71
     3
 72
    30
 73
    26
 74
     0
 42
0.00000001
 43
0.00000001
 40
0.0
 40
0.0
 40
0.0
 40
0.0
 40
0.00390625
 40
0.00390625
 40
0.0625
 40
0.0625
 40
0.125
 40
0.125
 40
0.25
 40
0.25
 40
0.375
 40
0.375
 40
0.5
 40
0.5
 40
0.625
 40
0.625
 40
0.75
 40
0.75
 40
0.875
 40
0.875
 40
0.9375
 40
0.96875
 40
0.998046875
 40
0.998046875
 40
1.0
 40
1.0
 40
1.0
 40
1.0
 10
526.7631146458567
 20
411.7322791108159
 30
0.0
 10
526.7983953291672
 20
411.7319810716024
 30
0.0
 10
526.8336753482162
 20
411.7315756056714
 30
0.0
 10
527.3981346181669
 20
411.7233704208608
 30
0.0
 10
527.9270193814029
 20
411.6915224831345
 30
0.0
 10
529.0148999186292
 20
411.5762603532337
 30
0.0
 10
529.5735524943889
 20
411.4895499571528
 30
0.0
 10
531.2330154557145
 20
411.1486009006737
 30
0.0
 10
532.3172910244514
 20
410.8135528854264
 30
0.0
 10
534.4008106959553
 20
409.9405715057794
 30
0.0
 10
535.4000035778931
 20
409.4026576226311
 30
0.0
 10
537.2754471795762
 20
408.1442894248569
 30
0.0
 10
538.1516511192519
 20
407.4238652470614
 30
0.0
 10
539.7478510014945
 20
405.8277894940719
 30
0.0
 10
540.4678074277027
 20
404.9521774323744
 30
0.0
 10
541.7241982765768
 20
403.0789547284138
 30
0.0
 10
542.2606026143688
 20
402.0813908093163
 30
0.0
 10
543.1295804501174
 20
400.0021042846452
 30
0.0
 10
543.4621345355974
 20
398.9204329210878
 30
0.0
 10
543.798675367084
 20
397.2655334207719
 30
0.0
 10
543.9263699973358
 20
396.4300092852068
 30
0.0
 10
544.0132795976192
 20
395.3253048156392
 30
0.0
 10
544.0302741356915
 20
394.7803947803206
 30
0.0
 10
544.0325796024104
 20
394.4991107378776
 30
0.0
 10
544.0326967527978
 20
394.4815303179196
 30
0.0
 10
544.0327869535736
 20
394.4639498114416
 30
0.0
  0
CIRCLE
  5
139
330
1F
100
AcDbEntity
  8
0
  6
Continuous
 62
     7
370
    25
100
AcDbCircle
 10
301.7050415094
 20
309.4721886792
 30
0.0
 40
58.9476507549463
  0
CIRCLE
  5
13A
330
1F
100
AcDbEntity
  8
0
  6
Continuous
 62
     7
370
    25
100
AcDbCircle
 10
301.7050415094
 20
309.4721886792
 30
0.0
 40
57.5
  0
LWPOLYLINE
  5
13B
330
1F
100
AcDbEntity
  8
0
  6
Continuous
 62
     7
370
    25
100
AcDbPolyline
 90
        3
 70
   128
 43
0.0
 10
332.8576111391
 20
331.7506683776
 10
331.7882514147
 20
333.1747989574
 10
330.3604981704
 20
334.8823845808
  0
LWPOLYLINE
  5
13C
330
1F
100
AcDbEntity
  8
0
  6
Continuous
 62
     7
370
    25
100
AcDbPolyline
 90
        3
 70
   128
 43
0.0
 10
303.7048679399
 20
347.7189394752
 10
302.4672623224
 20
347.7636011843
 10
299.6981312379
 20
347.7185684211
  0
LWPOLYLINE
  5
13D
330
1F
100
AcDbEntity
  8
0
  6
Continuous
 62
     7
370
    25
100
AcDbPolyline
 90
        3
 70
   128
 43
0.0
 10
273.0569797314
 20
334.8907214568
 10
272.5889271338
 20
334.3532082698
 10
270.5489215591
 20
331.7457030369
  0
ARC
  5
13E
330
1F
100
AcDbEntity
  8
0
  6
Continuous
 62
     7
370
    25
100
AcDbCircle
 10
301.7050415094
 20
309.4721886792
 30
0.0
 40
38.29899805739024
100
AcDbArc
 50
189.8638038788
 51
195.8624258108
  0
LWPOLYLINE
  5
13F
330
1F
100
AcDbEntity
  8
0
  6
Continuous
 62
     7
370
    25
100
AcDbPolyline
 90
        3
 70
   128
 43
0.0
 10
283.2983891956
 20
275.8863523371
 10
286.3473521336
 20
274.3872256718
 10
286.9224973084
 20
274.1410460549
  0
LWPOLYLINE
  5
140
330
1F
100
AcDbEntity
  8
0
  6
Continuous
 62
     7
370
    25
100
AcDbPolyline
 90
        3
 70
   128
 43
0.0
 10
316.4918604264
 20
274.1428348992
 10
319.0832696697
 20
275.3428693451
 10
320.1014943935
 20
275.880764573
  0
LWPOLYLINE
  5
141
330
1F
100
AcDbEntity
  8
0
  6
Continuous
 62
     7
370
    25
100
AcDbPolyline
 90
        3
 70
   128
 43
0.0
 10
338.5478291035
 20
299.0116793945
 10
339.1119933564
 20
301.2543297294
 10
339.4389009898
 20
302.9171066115
  0
LINE
  5
142
330
1F
100
AcDbEntity
  8
0
  6
Continuous
 62
     7
370
    25
100
AcDbLine
 10
302.0318819684
 20
325.8915551217
 30
0.0
 11
300.4303703911
 21
325.8452651341
 31
0.0
  0
LWPOLYLINE
  5
143
330
1F
100
AcDbEntity
  8
0
  6
Continuous
 62
     7
370
    25
100
AcDbPolyline
 90
        3
 70
   128
 43
0.0
 10
289.7278926109
 20
320.7083055938
 10
288.6136070223
 20
319.3876696118
 10
288.1136994049
 20
318.6905312013
  0
LWPOLYLINE
  5
144
330
1F
100
AcDbEntity
  8
0
  6
Continuous
 62
     7
370
    25
100
AcDbPolyline
 90
        3
 70
   128
 43
0.0
 10
315.3223515742
 20
318.6521279849
 10
315.1806999999
 20
318.8588306403
 10
313.719745938
 20
320.6681386859
  0
LINE
  5
145
330
1F
100
AcDbEntity
  8
0
  6
Continuous
 62
     7
370
    25
100
AcDbLine
 10
303.0351502605
 20
325.8408547754
 30
0.0
 11
302.0318819684
 21
325.8915551217
 31
0.0
  0
LWPOLYLINE
  5
146
330
1F
100
AcDbEntity
  8
0
  6
Continuous
 62
     7
370
    25
100
AcDbPolyline
 90
        3
 70
   128
 43
0.0
 10
285.4575345206
 20
307.0803409202
 10
285.9882968047
 20
304.70916916
 10
286.0380598787
 20
304.5479521254
  0
LWPOLYLINE
  5
147
330
1F
100
AcDbEntity
  8
0
  6
Continuous
 62
     7
370
    25
100
AcDbPolyline
 90
        3
 70
   128
 43
0.0
 10
293.4401199674
 20
295.2808712295
 10
293.9595881515
 20
294.9908085193
 10
295.7734290523
 20
294.1581953165
  0
LWPOLYLINE
  5
148
330
1F
100
AcDbEntity
  8
0
  6
Continuous
 62
     7
370
    25
100
AcDbPolyline
 90
        3
 70
   128
 43
0.0
 10
307.6543032358
 20
294.1650431593
 10
308.8680609047
 20
294.6940435927
 10
309.9795939449
 20
295.2864845709
  0
LWPOLYLINE
  5
149
330
1F
100
AcDbEntity
  8
0
  6
Continuous
 62
     7
370
    25
100
AcDbPolyline
 90
        3
 70
   128
 43
0.0
 10
317.3826564278
 20
304.5819116394
 10
317.8711291922
 20
306.580817363
 10
317.95824119
 20
307.1193352625
  0
LINE
  5
14A
330
1F
100
AcDbEntity
  8
0
  6
Continuous
 62
     7
370
    25
100
AcDbLine
 10
301.8818089878
 20
318.352392836
 30
0.0
 11
301.943162821
 21
321.4346032624
 31
0.0
  0
LINE
  5
14B
330
1F
100
AcDbEntity
  8
0
  6
Continuous
 62
     7
370
    25
100
AcDbLine
 10
302.0146177648
 20
325.0242595398
 30
0.0
 11
302.0318819684
 21
325.8915551217
 31
0.0
  0
LINE
  5
14C
330
1F
100
AcDbEntity
  8
0
  6
Continuous
 62
     7
370
    25
100
AcDbLine
 10
292.7362281233
 20
308.7235990427
 30
0.0
 11
292.8358816053
 21
308.7319167054
 31
0.0
  0
LWPOLYLINE
  5
14D
330
1F
100
AcDbEntity
  8
0
  6
Continuous
 62
     7
370
    25
100
AcDbPolyline
 90
        4
 70
   128
 43
0.0
 10
337.7134627234
 20
335.6187678374
 10
337.7062977591
 20
335.6286324063
 10
335.2167217466
 20
338.7504619836
 10
335.2123368534
 20
338.7554801392
  0
LWPOLYLINE
  5
14E
330
1F
100
AcDbEntity
  8
0
  6
Continuous
 62
     7
370
    25
100
AcDbPolyline
 90
        4
 70
   128
 43
0.0
 10
303.7145939945
 20
353.9267913522
 10
303.70152646
 20
353.9273801403
 10
299.7085565588
 20
353.9273801403
 10
299.6989160127
 20
353.9269461355
  0
LWPOLYLINE
  5
14F
330
1F
100
AcDbEntity
  8
0
  6
Continuous
 62
     7
370
    25
100
AcDbPolyline
 90
        4
 70
   128
 43
0.0
 10
268.2022976221
 20
338.7606873096
 10
268.1933612723
 20
338.7504619836
 10
265.7037852597
 20
335.6286324063
 10
265.6968916627
 20
335.6191415537
  0
LWPOLYLINE
  5
150
330
1F
100
AcDbEntity
  8
0
  6
Continuous
 62
     7
370
    25
100
AcDbPolyline
 90
        4
 70
   128
 43
0.0
 10
257.9195646881
 20
301.5297696818
 10
257.9201748168
 20
301.5264068607
 10
258.8086942085
 20
297.6335490515
 10
258.811626119
 20
297.6229306375
  0
LWPOLYLINE
  5
151
330
1F
100
AcDbEntity
  8
0
  6
Continuous
 62
     7
370
    25
100
AcDbPolyline
 90
        4
 70
   128
 43
0.0
 10
280.6150243266
 20
270.2872275943
 10
280.6178860294
 20
270.2856875116
 10
284.2154276008
 20
268.5532028007
 10
284.2243046737
 20
268.5494096964
  0
LWPOLYLINE
  5
152
330
1F
100
AcDbEntity
  8
0
  6
Continuous
 62
     7
370
    25
100
AcDbPolyline
 90
        4
 70
   128
 43
0.0
 10
319.1913406311
 20
268.5517861516
 10
319.194655418
 20
268.5532028007
 10
322.7921969895
 20
270.2856875116
 10
322.7994234245
 20
270.2895770815
  0
LWPOLYLINE
  5
153
330
1F
100
AcDbEntity
  8
0
  6
Continuous
 62
     7
370
    25
100
AcDbPolyline
 90
        4
 70
   128
 43
0.0
 10
344.6002231172
 20
297.6293260678
 10
344.6013888104
 20
297.6335490515
 10
345.4899082021
 20
301.5264068607
 10
345.4911177118
 20
301.5330746983
  0
LWPOLYLINE
  5
154
330
1F
100
AcDbEntity
  8
0
  6
Continuous
 62
     7
370
    25
100
AcDbPolyline
 90
        3
 70
   128
 43
0.0
 10
335.3653226211
 20
333.7494859525
 10
334.8242148332
 20
334.4826274152
 10
332.8679251353
 20
336.8816098977
  0
LWPOLYLINE
  5
155
330
1F
100
AcDbEntity
  8
0
  6
Continuous
 62
     7
370
    25
100
AcDbPolyline
 90
        3
 70
   128
 43
0.0
 10
303.7082117215
 20
350.9256444642
 10
301.7050415094
 20
350.9740161982
 10
299.7039696232
 20
350.9257458091
  0
LWPOLYLINE
  5
156
330
1F
100
AcDbEntity
  8
0
  6
Continuous
 62
     7
370
    25
100
AcDbPolyline
 90
        3
 70
   128
 43
0.0
 10
270.5428190255
 20
336.8823615586
 10
268.5858681857
 20
334.4826274152
 10
268.0462425544
 20
333.7515408188
  0
LWPOLYLINE
  5
157
330
1F
100
AcDbEntity
  8
0
  6
Continuous
 62
     7
370
    25
100
AcDbPolyline
 90
        3
 70
   128
 43
0.0
 10
260.8452109858
 20
302.2006044644
 10
260.9098614706
 20
301.8462478841
 10
261.7381722402
 20
298.2895660786
  0
LWPOLYLINE
  5
158
330
1F
100
AcDbEntity
  8
0
  6
Continuous
 62
     7
370
    25
100
AcDbPolyline
 90
        3
 70
   128
 43
0.0
 10
281.9097030651
 20
272.9955350048
 10
283.2060851494
 20
272.3212761601
 10
285.5306073972
 20
271.2519143663
  0
LWPOLYLINE
  5
159
330
1F
100
AcDbEntity
  8
0
  6
Continuous
 62
     7
370
    25
100
AcDbPolyline
 90
        3
 70
   128
 43
0.0
 10
317.879400987
 20
271.2518827817
 10
320.2039978694
 20
272.3212761601
 10
321.5022065378
 20
272.996526324
  0
LWPOLYLINE
  5
15A
330
1F
100
AcDbEntity
  8
0
  6
Continuous
 62
     7
370
    25
100
AcDbPolyline
 90
        3
 70
   128
 43
0.0
 10
341.6714897901
 20
298.2880615681
 10
342.5002215483
 20
301.8462478841
 10
342.5657345497
 20
302.2054527078
  0
LWPOLYLINE
  5
15B
330
1F
100
AcDbEntity
  8
0
  6
Continuous
 62
     7
370
    25
100
AcDbPolyline
 90
        3
 70
   128
 43
0.0
 10
334.6834342125
 20
333.2068912762
 10
333.6434775467
 20
334.5888523936
 10
332.1864198718
 20
336.3384512734
  0
ARC
  5
15C
330
1F
100
AcDbEntity
  8
0
  6
Continuous
 62
     7
370
    25
100
AcDbCircle
 10
301.7050415094
 20
309.4721886792
 30
0.0
 40
40.63139786726508
100
AcDbArc
 50
87.1768308217
 51
92.8256469467
  0
LWPOLYLINE
  5
15D
330
1F
100
AcDbEntity
  8
0
  6
Continuous
 62
     7
370
    25
100
AcDbPolyline
 90
        3
 70
   128
 43
0.0
 10
271.2235069459
 20
336.3382740528
 10
269.7666054721
 20
334.5888523936
 10
268.7254167645
 20
333.2051793111
  0
LWPOLYLINE
  5
15E
330
1F
100
AcDbEntity
  8
0
  6
Continuous
 62
     7
370
    25
100
AcDbPolyline
 90
        3
 70
   128
 43
0.0
 10
261.6946488406
 20
302.3955389684
 10
261.8079059337
 20
301.7826460728
 10
262.5879006837
 20
298.4831129097
  0
LWPOLYLINE
  5
15F
330
1F
100
AcDbEntity
  8
0
  6
Continuous
 62
     7
370
    25
100
AcDbPolyline
 90
        3
 70
   128
 43
0.0
 10
282.2862258037
 20
273.7815724162
 10
284.8261488361
 20
272.5125691632
 10
285.9091224205
 20
272.0369187752
  0
LWPOLYLINE
  5
160
330
1F
100
AcDbEntity
  8
0
  6
Continuous
 62
     7
370
    25
100
AcDbPolyline
 90
        3
 70
   128
 43
0.0
 10
317.5013521524
 20
272.037083995
 10
318.5839341827
 20
272.5125691632
 10
321.1219462307
 20
273.7805327399
  0
LWPOLYLINE
  5
161
330
1F
100
AcDbEntity
  8
0
  6
Continuous
 62
     7
370
    25
100
AcDbPolyline
 90
        3
 70
   128
 43
0.0
 10
340.8226798617
 20
298.4848840786
 10
341.6021770852
 20
301.7826460728
 10
341.7147209529
 20
302.3915076753
  0
ENDSEC
  0
SECTION
  2
OBJECTS
  0
DICTIONARY
  5
C
330
0
100
AcDbDictionary
281
     1
  3
ACAD_GROUP
350
D
  3
ACAD_LAYOUT
350
1A
  3
ACAD_MLINESTYLE
350
17
  3
ACAD_PLOTSETTINGS
350
19
  3
ACAD_PLOTSTYLENAME
350
E
  3
ACAD_SCALELIST
350
47
  3
DWGPROPS
350
162
  0
DICTIONARY
  5
D
102
{ACAD_REACTORS
330
C
102
}
330
C
100
AcDbDictionary
281
     1
  0
DICTIONARY
  5
1A
102
{ACAD_REACTORS
330
C
102
}
330
C
100
AcDbDictionary
281
     1
  3
Layout1
350
1E
  3
Layout2
350
26
  3
Model
350
22
  0
DICTIONARY
  5
17
102
{ACAD_REACTORS
330
C
102
}
330
C
100
AcDbDictionary
281
     1
  3
Standard
350
18
  0
DICTIONARY
  5
19
102
{ACAD_REACTORS
330
C
102
}
330
C
100
AcDbDictionary
281
     1
  0
ACDBDICTIONARYWDFLT
  5
E
102
{ACAD_REACTORS
330
C
102
}
330
C
100
AcDbDictionary
281
     1
  3
Normal
350
F
100
AcDbDictionaryWithDefault
340
F
  0
DICTIONARY
  5
47
102
{ACAD_REACTORS
330
C
102
}
330
C
100
AcDbDictionary
281
     1
  3
A0
350
48
  3
A1
350
49
  3
A2
350
4A
  3
A3
350
4B
  3
A4
350
4C
  3
A5
350
4D
  3
A6
350
4E
  3
A7
350
4F
  3
A8
350
50
  3
A9
350
51
  3
B0
350
52
  3
B1
350
53
  3
B2
350
54
  3
B3
350
55
  3
B4
350
56
  3
B5
350
57
  3
B6
350
58
  0
XRECORD
  5
162
102
{ACAD_REACTORS
330
C
102
}
330
C
100
AcDbXrecord
280
     1
  1
DWGPROPS COOKIE
  2

  3

  4

  6

  7

  8
villesi
  9

300
=
301
=
302
=
303
=
304
=
305
=
306
=
307
=
308
=
309
=
 40
0.0
 41
2460406.252041771
 42
2460406.252042454
  1

 90
        0
  0
LAYOUT
  5
1E
102
{ACAD_REACTORS
330
1A
102
}
330
1A
100
AcDbPlotSettings
  1

  2
none_device
  4

  6

 40
0.0
 41
0.0
 42
0.0
 43
0.0
 44
0.0
 45
0.0
 46
0.0
 47
0.0
 48
0.0
 49
0.0
140
0.0
141
0.0
142
1.0
143
1.0
 70
   688
 72
     1
 73
     0
 74
     5
  7

 75
    16
147
1.0
148
0.0
149
0.0
100
AcDbLayout
  1
Layout1
 70
     1
 71
     1
 10
0.0
 20
0.0
 11
420.0
 21
297.0
 12
0.0
 22
0.0
 32
0.0
 14
1.0000000000E+20
 24
1.0000000000E+20
 34
1.0000000000E+20
 15
-1.0000000000E+20
 25
-1.0000000000E+20
 35
-1.0000000000E+20
146
0.0
 13
0.0
 23
0.0
 33
0.0
 16
1.0
 26
0.0
 36
0.0
 17
0.0
 27
1.0
 37
0.0
 76
     0
330
1B
  0
LAYOUT
  5
26
102
{ACAD_REACTORS
330
1A
102
}
330
1A
100
AcDbPlotSettings
  1

  2
none_device
  4

  6

 40
0.0
 41
0.0
 42
0.0
 43
0.0
 44
0.0
 45
0.0
 46
0.0
 47
0.0
 48
0.0
 49
0.0
140
0.0
141
0.0
142
1.0
143
1.0
 70
   688
 72
     1
 73
     0
 74
     5
  7

 75
    16
147
1.0
148
0.0
149
0.0
100
AcDbLayout
  1
Layout2
 70
     1
 71
     2
 10
0.0
 20
0.0
 11
0.0
 21
0.0
 12
0.0
 22
0.0
 32
0.0
 14
0.0
 24
0.0
 34
0.0
 15
0.0
 25
0.0
 35
0.0
146
0.0
 13
0.0
 23
0.0
 33
0.0
 16
1.0
 26
0.0
 36
0.0
 17
0.0
 27
1.0
 37
0.0
 76
     0
330
23
  0
LAYOUT
  5
22
102
{ACAD_REACTORS
330
1A
102
}
330
1A
100
AcDbPlotSettings
  1

  2
none_device
  4
Letter_(8.50_x_11.00_Inches)
  6

 40
6.35
 41
6.35
 42
6.35000508
 43
6.35000508
 44
215.9
 45
279.4
 46
0.0
 47
0.0
 48
0.0
 49
0.0
140
0.0
141
0.0
142
1.0
143
1.0
 70
  1712
 72
     1
 73
     0
 74
     0
  7

 75
     0
147
1.0
148
0.0
149
0.0
100
AcDbLayout
  1
Model
 70
     1
 71
     0
 10
0.0
 20
0.0
 11
600.0
 21
450.0
 12
0.0
 22
0.0
 32
0.0
 14
0.0
 24
0.0
 34
0.0
 15
600.0
 25
450.0
 35
0.0
146
0.0
 13
0.0
 23
0.0
 33
0.0
 16
1.0
 26
0.0
 36
0.0
 17
0.0
 27
1.0
 37
0.0
 76
     0
330
1F
331
29
  0
MLINESTYLE
  5
18
102
{ACAD_REACTORS
330
17
102
}
330
17
100
AcDbMlineStyle
  2
Standard
 70
     0
  3

 62
   256
 51
90.0
 52
90.0
 71
     2
 49
0.5
 62
   256
  6
BYLAYER
 49
-0.5
 62
   256
  6
BYLAYER
  0
ACDBPLACEHOLDER
  5
F
102
{ACAD_REACTORS
330
E
102
}
330
E
  0
SCALE
  5
48
102
{ACAD_REACTORS
330
47
102
}
330
47
100
AcDbScale
 70
     0
300
1:1
140
1.0
141
1.0
290
     1
  0
SCALE
  5
49
102
{ACAD_REACTORS
330
47
102
}
330
47
100
AcDbScale
 70
     0
300
1:2
140
1.0
141
2.0
290
     0
  0
SCALE
  5
4A
102
{ACAD_REACTORS
330
47
102
}
330
47
100
AcDbScale
 70
     0
300
1:4
140
1.0
141
4.0
290
     0
  0
SCALE
  5
4B
102
{ACAD_REACTORS
330
47
102
}
330
47
100
AcDbScale
 70
     0
300
1:5
140
1.0
141
5.0
290
     0
  0
SCALE
  5
4C
102
{ACAD_REACTORS
330
47
102
}
330
47
100
AcDbScale
 70
     0
300
1:8
140
1.0
141
8.0
290
     0
  0
SCALE
  5
4D
102
{ACAD_REACTORS
330
47
102
}
330
47
100
AcDbScale
 70
     0
300
1:10
140
1.0
141
10.0
290
     0
  0
SCALE
  5
4E
102
{ACAD_REACTORS
330
47
102
}
330
47
100
AcDbScale
 70
     0
300
1:16
140
1.0
141
16.0
290
     0
  0
SCALE
  5
4F
102
{ACAD_REACTORS
330
47
102
}
330
47
100
AcDbScale
 70
     0
300
1:20
140
1.0
141
20.0
290
     0
  0
SCALE
  5
50
102
{ACAD_REACTORS
330
47
102
}
330
47
100
AcDbScale
 70
     0
300
1:30
140
1.0
141
30.0
290
     0
  0
SCALE
  5
51
102
{ACAD_REACTORS
330
47
102
}
330
47
100
AcDbScale
 70
     0
300
1:40
140
1.0
141
40.0
290
     0
  0
SCALE
  5
52
102
{ACAD_REACTORS
330
47
102
}
330
47
100
AcDbScale
 70
     0
300
1:50
140
1.0
141
50.0
290
     0
  0
SCALE
  5
53
102
{ACAD_REACTORS
330
47
102
}
330
47
100
AcDbScale
 70
     0
300
1:100
140
1.0
141
100.0
290
     0
  0
SCALE
  5
54
102
{ACAD_REACTORS
330
47
102
}
330
47
100
AcDbScale
 70
     0
300
2:1
140
2.0
141
1.0
290
     0
  0
SCALE
  5
55
102
{ACAD_REACTORS
330
47
102
}
330
47
100
AcDbScale
 70
     0
300
4:1
140
4.0
141
1.0
290
     0
  0
SCALE
  5
56
102
{ACAD_REACTORS
330
47
102
}
330
47
100
AcDbScale
 70
     0
300
8:1
140
8.0
141
1.0
290
     0
  0
SCALE
  5
57
102
{ACAD_REACTORS
330
47
102
}
330
47
100
AcDbScale
 70
     0
300
10:1
140
10.0
141
1.0
290
     0
  0
SCALE
  5
58
102
{ACAD_REACTORS
330
47
102
}
330
47
100
AcDbScale
 70
     0
300
100:1
140
100.0
141
1.0
290
     0
  0
ENDSEC
  0
EOF
